Guitar Tabs, Chords and Lyrics


Non Dlovete Badare Al Cantante  Ligabue



E--5---5-5--3---3-3--]-0---0-0--0-------]-5---5-5--3---3-3-]

B--3---3-3--1---1-1--]-1---1-1--1--1----]-3---3-3--1---1-1-]
G--------------------]----------------0-]------------------]
D--------------------]------------------]------------------]
A--------------------]------------------]------------------]
E--------------------]------------------]------------------]
E-0---0-0-0----------]
B-1---1-1-1----1-----]
G-----------------0--]
D--------------------]
A--------------------]
E--------------------]
Non do[G]vete ba[Am7]dare al can[C]tante
tutta gente che viene e che va
tutta [D]gente che resta sol[Em]tanto un momento
sol[C]tanto nel caso che il [G]pezzo ci diverti[Am7]ra'

  [Am7]ra'           [D4]      [D]  Non do-
E-0-----------]-3-----2-------]
B-1---------1-]-3-----3-------]
G-0---0--2----]-2-----2-------]
D-2-----------]---------------]
A-0-----------]---------------]
E-------------]---------------]


       [D11]       [D]                       
Non do[G]vete ba[Am7]dare al can[C]tante
lo sappiamo la vita che fa
guarda [D]solo la foto che [Em]c'e' sul giornale
e ci [C]siamo capiti che [G]razza di uomo sara'[Am7]        [D4]    [D]

CHORUS:[C] certe vite [D]passano
       [Em] leggere come [Bm]le canzoni
       [C] che dietro le can[D]zoni vanno [Am7]       [Bm7]     [C]
       [C] certe vite [D]sfumano
       [Em] veloci come [Bm]le canzoni
       [C] che dentro le can[D]zoni stanno[Am7]       [Bm7]      [C]

Non dovete badare al cantante
quello l? che si crede una star
quello l? che si crede uno che lasci il segno
ed invece una volta passato chi si volter? ?

CHORUS
Non do[G]vete ba[Am7]dare al can[C]tante
tutta [G]gente che [Am7]viene e che [C]va

[G]  [Am]   [C]      [G]  [Am7]    [C]      [G]  [Am7]    [C]     [G]  [Am7] [C] [G] 

{ si puo' fischiettare la parte eseguita dall'
hammond }

   [C]            [G]                                                                       
E--O---------]-3---------]   questa e'la chiusura del
B--1---------]-0---------]   basso arrangiata per la
G--0---------]-0---------]   chitarra
D--2---2-----]-0---------]
A--3-----3-0-]-2---------]
E--3---------]-3---------]


ciao a tutti da Simone, per correzioni o suggerimenti
contattatemi alla casella: simonep@sintec.it

Important: The song above is NOT stored on the Chordie server. The original song is hosted at www.guitaretab.com. Chordie works as a search engine and provides on-the-fly formatting. Chordie does not index songs against artists'/composers' will. To remove this song please click here.

Text color:
Chord color:
Chord grids: 
Font size:    
Page size: 

Am Am7 Bm Bm7 C D D11 D4 Em G
variations - click chord images

Login - add to songbook

Transpose chords

Tuning

Rating click stars to rate

Layout
Accuracy

SHARE PAGE  




You need to log in to post comments