Guitar Tabs, Chords and Lyrics


Piccola Stella Senza Cielo  Ligabue

E-----------------------------------------------------------------


B-------------------------------------7---------------------------


G---7--9--7--11---7--9--7----7--9--7-----7--9--7------------------

D-------------------------------------------------11--7-----------
A-----------------------------------------------------------------
E-----------------------------------------------------------------
E-----------------------------------7--------
B--------------------------10-----------10---
G---7--9--7--11---7--9--7------(7)-----------
D--------------------------------------------
A--------------------------------------------
E--------------------------------------------
E-------------------------------
B-------------------------------
G-7--9--7--11--7---9--7---------
D------------------------11--7--
A-------------------------------
E-------------------------------
------------------------------------------------------------------
[Bm]Cosa ci fai[G7+]
In [D]mezzo a tutta
[A]Questa [G]gente
[Bm]  Sei tu che vu[G7+]oi
O in [D]fin dei conti [A]non ti [G]frega niente
Tanti ti cercano
Spiazzati da una luce senza futuro.
Altri si allungano
Vorrebbero tenerti nel loro buio

Ti brucerai
Piccola stella senza cielo.
Ti mostrerai
Ci incanteremo mentre scoppi in volo
Ti scioglierai
Dietro a una scia un soffio, un velo
Ti staccherai
Perche' ti tiene su soltanto un filo, sai

Tieniti su le altre stelle son disposte
Solo che tu a volte credi non ti basti
Forse capitera' che ti si chiuderanno gli occhi ancora
O soltanto sara' una parentesi di una mezz'ora

Ti brucerai
Piccola stella senza cielo.
Ti mostrerai
Ci incanteremo mentre scoppi in volo
Ti scioglierai
Dietro a una scia un soffio, un velo
Ti staccherai
Perche' ti tiene su soltanto un filo, sai

Important: The song above is NOT stored on the Chordie server. The original song is hosted at www.guitaretab.com. Chordie works as a search engine and provides on-the-fly formatting. Chordie does not index songs against artists'/composers' will. To remove this song please click here.

Text color:
Chord color:
Chord grids: 
Font size:    
Page size: 

A Bm D G G7+
variations - click chord images

Login - add to songbook

Transpose chords

Tuning

Rating click stars to rate

Layout
Accuracy

SHARE PAGE  




You need to log in to post comments