Guitar Tabs, Chords and Lyrics


Air Conditioned Love   Ludo



-------------------------------------------------------------------------------
			     Air Conditioned Love - Ludo
-------------------------------------------------------------------------------
Tabbed by:Alex
Email:guitar_freak_214@yahoo.com

Tuning:EADGBe

Had to watch Tim Ferrel live play this and figure it out by ear. Feel free to contact me 
any corrections. Ludo Rock forver!


Intro (listen to the track for the timing)
e|------------------------------------------|
B|------------------------------------------|
G|------------------------------------------| X 4
D|---2---2---2---0----2---2---2--3--5-------|
A|-------------3----0---0---0---------------|
E|-1---1---1--------------------------------|

Verse (again listen to the song, the chords usually change halfway through each line)

 F5              A5
I am a savage besmitten with her

 F5                       A5
The loneliest werewolf, I wander the earth

 F5                       A5
My words are mistakes and my thoughts are unclean

 F5                     A5
This cider inside me, it slides like a dream

(this part with distortion, again listen for strumming pattern)
e|---------------------------|
B|---------------------------|
G|---------------2---2---2---| X 2
D|-3---3---3-----2---2---2---|
A|-3---3---3-----0---0---0---|
E|-1---1---1-----------------|

(The chords for the rest of the verse are still F5 switching to A5, listen for timing)

Chorus

e|----------------------------------------|
B|----------------------------------------|
G|-------------2-----7-----------------2--| X 4
D|-5-----3-----2-----7-----5-----3-----2--|
A|-5-----3-----0-----5-----5-----3-----0--|
E|-3-----1-----------------3-----1--------|

Back into verse
e|------------------------------------------------------|
B|------------------------------------------------------|
G|------------------------------------------------------|
D|---2---2~---2---2~---2---2---2---0---2---2---2--3--5--|
A|-------------------------------3---0---0---0----------|
E|-1---1----1---1----1---1---1--------------------------|

Verse

Chorus

Outro
(background chords)(played through the rest of the song, listen for timing)
e|--------------------------|
B|--------------------------|
G|--------10------------10--|
D|-10-----10-----10-----10--|
A|-10-----8------10-----8---|
E|-8-------------8----------|

(lead line)(played with a whammy pedal)(again, timing)
e|----------------------------|
B|-9~~~-13~-15--15h17\8~~~----|
G|----------------------------| X 3
D|----------------------------|
A|----------------------------|
E|----------------------------|

e|-------------------------------------------|
B|-9~~~-13~-15--15h17--17-17-17---15---13----|
G|-------------------------------------------|
D|-------------------------------------------|
A|-------------------------------------------|
E|-------------------------------------------|

(this part has a kind of triplet feel)
e|-------------------------------------|
B|-17--15--13--17--15--13--17--15--13--|
G|-------------------------------------|
D|-------------------------------------|
A|-------------------------------------|
E|-------------------------------------|

e|-14--12--14--12--14--12--14--12--14--12--|
B|-----------------------------------------|
G|-----------------------------------------|
D|-----------------------------------------|
A|-----------------------------------------|
E|-----------------------------------------|

(Tim slides up the neck and hits the 20th fret then slides down and back up to it over 
over adjusting the whammy pedal, listen for correct timing)
e|-/20\/20\/20\/20\/20/\20-----------------|
B|-----------------------------------------|
G|-----------------------------------------|
D|-----------------------------------------|
A|-----------------------------------------|
E|-----------------------------------------|

(the chords stop and one chird is help while Tim goes back to his first lick of the 
only a little slower)
e|----------------------------|
B|-9~~~-13~-15--15h17\8~~~----|
G|----------------------------|
D|----------------------------|
A|----------------------------|
E|----------------------------|

...fades to awesomeness...


Lyrics

I am a savage besmitten with her
The loneliest werewolf, I wander the earth
My words are mistakes and my thoughts are unclean
This cider inside me, it slides like a dream
The moon of her window, it glows evermore
The night wrapped around us, two spoons in a drawer
I miss her dark blankets, I miss her clean sheets
All her Julietting, coquettish and sweet

Make me hold you
But then I'm just a ghost
Air-conditioned love
Is always cold

I enter her room and it smells like before
Like rain and vanilla, she closes the door
The movement, the blurring, the echoing ache
Of slow disappearing and smearing away
But now I'm a thief, I'm a transient freak
A discarded object, I'm hated and weak
She's hollowed my chest and I've haunted her street
That ravenous princess, she's ravaged through me

Make me hold you
But then I'm just a ghost
Air-conditioned love
Is always cold


| /  slide up
| \  slide down
| h  hammer-on
| p  pull-off
| ~  vibrato
| +  harmonic
| x  Mute note

If there are any corrections feel free to email me and let me know. please enjoy


Important: The song above is NOT stored on the Chordie server. The original song is hosted at www.guitaretab.com. Chordie works as a search engine and provides on-the-fly formatting. Chordie does not index songs against artists'/composers' will. To remove this song please click here.

This song is displayed as text-only. Transposing and tuning is only available for chordpro-songs.

Login - add to songbook

Rating click stars to rate

Layout
Accuracy

SHARE PAGE  




You need to log in to post comments