Guitar Tabs, Chords and Lyrics


See You At The Disco   Pickett Luke



CAPO ON 2ND FRET. Figure out The Rythm
h- hammer to.
p- pull off to.
s- slightly move the string in same note
/- slide down
\- slide up
99.9% sure its correct

Intro
e|-2222-2222-|
B|-3333-3333-|
G|-4444-0000-|
D|-2222-2222-|
A|-0000-0000-|
E|-0000-0000-| several times

Solo
e|------------------------------------------|
B|-8s-10---7s-8-8p7-5s-7-7/8-8/10-8-7h8p7---|
G|-----7h9----------------------------------|
D|------------------------------------------|
A|------------------------------------------|
E|------------------------------------------|

Chords
e|-0000-0000-----|-0000-0000----------|
B|-0000-0000-----|-0000-0000----------|
G|-0000-4444-----|-0000-0000----------|
D|-2222-2222-----|-5555-5555----------|
A|-2222-2222-----|-5555-5555----------|
E|-0000-0000--x2-|-3333-3333-x2-------| several times

e|----------------------------------|
B|----------------------------------|
G|-555-555-777-777-555--555--7777---|
D|-333-333-555-555-333--333--5555---|
A|----------------------------------|
E|----------------------------------|

2nd solo part.
e|---------------------------------------|
B|---8----------8-------7h8p7------------|
G|-----11-7-------11-7--------9-7-7h9p7--|
D|-9--------9-9--------9-----------------|
A|---------------------------------------|
E|---------------------------------------|

then...
e|-0-0-xxx-0-0-xxx-0-0-xxx-0--0--xxxx----|
B|-0-0-xxx-0-0-xxx-0-0-xxx-0-----xxxx----|
G|-0-0-xxx-0-0-xxx-0-0-xxx-0--0--xxxx----|
D|-4-4-xxx-5-5-xxx-7-7-xxx-12-12-xxxx----| 

Important: The song above is NOT stored on the Chordie server. The original song is hosted at www.guitaretab.com. Chordie works as a search engine and provides on-the-fly formatting. Chordie does not index songs against artists/composers will. To remove this song please click here.

This song is displayed as text-only. Transposing and tuning is only available for chordpro-songs.

Login - add to songbook

Rating click stars to rate

Layout
Accuracy

SHARE PAGE  




You need to log in to post comments