Untogether

Lush

 EEEEEEEEEEEEEE
                 E]                            E]                                                
||--12-11----12-(12)----11-12-|-12-11----12-(12)----11-12-|
||o-------12---------12-------|-------12---------12-------|
||----------------------------|---------------------------|
||----------------------------|---------------------------|
||o---------------------------|---------------------------|
||----------------------------|---------------------------|


* Verse begins

E E E E +E E E E E E E E +E E E E W
|-12-------12-(12)-------12-|-12-------12-(12)-------12--||-------||
|----13---------------13----|----13---------------13----o||-------||
|-------14---------14-------|-------14---------14--------||-16----||
|---------------------------|----------------------------||-------||
|---------------------------|---------------------------o||-------||
|---------------------------|----------------------------||-------||



 E
 It's not easy
 G/DC
But try to picture this
 E
 Do you remember
 G/DC
That we were once together?
 E
 Isn't it strange, isn't it?
 C
 I'm sorry it's come to this but
 E
 Why are we here, bothering?
 C
 What was it we talked about? so

 EG/DC
 Just remind me Of why I'm wasting so much
 EG/DCE
 Time pretending that there is something more than
 EC
 Only this, only this pointless accusation
 EB
 Tell me again, why are we here?

 E
 I'm not offended by the things that you say
 Am
'cause it's such a predictable Way to behave
 E
 Talk and insult me 'til you're blue in the face
 Am
You were right, I was wrong, now does that make you happy?
 E
 I'm quite aware of all the bad things I did
 Am
You don't have to remind me of why you dislike me
 E
 There's no solution to the mess that we're in,
 Am
It's so sad and so boring
 CE
wish you'd just leave me alone
 CDE
 But I understand the games you play
 CDECB
 I'm ashamed of all the things I did to you  

Outro Solo

Q E E E E E E +E E E E E E E E
|-----------------------|--------------------------|
|-12--12-12-12-13-12-10-|-(10)-10-10-10-10-12-10-8-|
|-----------------------|--------------------------|
|-----------------------|--------------------------|
|-----------------------|--------------------------|
|-----------------------|--------------------------|


 EEEEEEEEEEEEEE
  E]                     E]                                                                     
|--------------------|--------------------|
|-(8)-8-8-8-8-10-8-7-|-(7)-7-7-7-7-8-7-5--|
|--------------------|--------------------|
|--------------------|--------------------|
|--------------------|--------------------|
|--------------------|--------------------|


 EEEEEEEEEEEEEE
  E]                         E]                                                                 
|-----------------------|--------------------------|
|-(5)-5-5-5-12-13-12-10-|-(10)-10-10-10-10-12-10-8-|
|-----------------------|--------------------------|
|-----------------------|--------------------------|
|-----------------------|--------------------------|
|-----------------------|--------------------------|


+E E E E E E E E +E E E E E E Q
|--------------------|-------------------|
|-(8)-8-8-8-8-10-8-7-|-(7)-7-7-7-7-8-7---|
|--------------------|-------------------|
|--------------------|-------------------|
|--------------------|-------------------|
|--------------------|-------------------|


E E E E +E E E E +E E E E +E E Q
|-------------------|--------------------|
|-8-7-5-8-(8)-7-5-8-|-(8)-7-5-8-(8)-7-5--|
|-------------------|--------------------|
|-------------------|--------------------|
|-------------------|--------------------|
|-------------------|--------------------|


E E E E +E E E E +E E E E +E E Q
|-------------------|---------------------|
|-8-7-5-8-(8)-7-5-8-|-(8)-7-5-8-(8)-7-5---|
|-------------------|---------------------|
|-------------------|---------------------|
|-------------------|---------------------|
|-------------------|---------------------|


E E E E +E E E E +E E E E +E E Q E E E E +E E E E
|-------------------|--------------------|-----------------------|
|-8-7-5-8-(8)-7-5-8-|-(8)-7-5-8-(8)-7-5--|-10-8-7-10-(10)-8-7-10-|
|-------------------|--------------------|-----------------------|
|-------------------|--------------------|-----------------------|
|-------------------|--------------------|-----------------------|
|-------------------|--------------------|-----------------------|


+E E E E +E E Q E E E E E E Q
|------------------------|------------------------||
|-(10)-8-7-10-(10)-8-7/--|-12-12-12-12-12-12-12---||
|------------------------|------------------------||
|------------------------|------------------------||
|------------------------|------------------------||
|------------------------|------------------------||


***************************************************************************************
* Generated using Power Tab Editor by Brad Larsen - http://powertab.guitarnetwork.org *
***************************************************************************************


Am B C D E G/D
variations - click chord images
Transpose chords:
Tuning:
Cool service:
View: Size:
A  A  A
Rating:
Layout:
  • Currently 0/5 Stars.
  • 1
  • 2
  • 3
  • 4
  • 5
 
Accuracy:
  • Currently 0/5 Stars.
  • 1
  • 2
  • 3
  • 4
  • 5
 
click stars to rate
Chordie recommends:
Learn how to play guitar at JamPlay.com
Songbook:
Login to add this song to your songbook
Support the artist
Preview/buy this song
MSN Music
Why this non-profit ad?

 
login to add comments/video/corrections