Guitar Tabs, Chords and Lyrics


Never Too Much   Luther Vandross



“Never Too Much”
Artist: Luther Vandross

Tabbed by: Brad Chamberlain

Intro:(00:03)
e|-10-12----10-12-------------------------10-12----10-12------|
B|-10-12----10-12-------------------------10-12----10-12------|
G|------------------------------------------------------------|
D|---------------------7-7--7-7--7h9--------------------------|
A|------------------------------------------------------------|
E|------------------------------------------------------------|

e|-------------------------|
B|-------------------------|
G|-11-11-9--11--9--11-9-11-| Repeat 1 more time.
D|-11-11-9--11--9--11-9-11-|
A|-------------------------|
E|-------------------------|

Verse:(00:38)
e|----------------------------------------------------------------|
B|----------------------------------------------------------------|
G|----------------------------------------------------------------|
D|-7-7--7-7--7h9--7--7-7--7-7-7h9--7-7--7-7--7h9--7--7-7--7-7-7h9-|
A|----------------------------------------------------------------|
E|----------------------------------------------------------------|

e|------------------------------------|
B|------------------------------------|
G|------------------------------------| Note: The 7h9 on A is used
D|-7-7--7-7--7h9--7--7-7---7-7------7-| in different times through
A|------------------------------7h9---| the verse.
E|------------------------------------|

Chorus:(01:17)
e|--------------|
B|-12--------14-|
G|-12--------14-| Repeat 2 more times.
D|-12--------14-|
A|--------------|
E|--------------|

Code:


Important: The song above is NOT stored on the Chordie server. The original song is hosted at www.guitaretab.com. Chordie works as a search engine and provides on-the-fly formatting. Chordie does not index songs against artists/composers will. To remove this song please click here.

This song is displayed as text-only. Transposing and tuning is only available for chordpro-songs.

Login - add to songbook

Rating click stars to rate

Layout
Accuracy

SHARE PAGE  




You need to log in to post comments