Chordie logo


Consequences Of Learning How To Fly   Lyndsay Diaries



Alright, well I saw this song that was wrong so I decided to at least put the intro up. 
can e-mail me at youripmyheartrightout@yahoo.com for comments or corrections.

The strumming pattern is weird, but you get used to it after listening to the song and 
it.
Hint: Pick down, and then strum up.


      Am                               G

e|----0-----0-----0-----0-------0---0----3------------|
B|----2--2--2-----2-----2-------1---3----0------------|
G|----2-----2--2--2-----2-------2---2----0------------|   x8
D|----1-----1-----1--1--1----3--3---3----0------------|
A|--0-x-----x-----x-----x-------x---x----2------------|
E|----x-----x-----x-----x-------x---x----3------------|

This is basically most of the song. Here's another way to play it, too.

If you're a half step down, put a capo on the 5th fret. If you are in regular tuning, 
your capo on the 4th fret.


      E                         C        D

e|----0-----0-----0-----0-------0---0----2--3---------|
B|----0--0--0-----0-----0-------1---3----3--3---------|
G|----0-----0--0--0-----0-------0---0----0--0---------|   x8
D|----2-----2-----2--2--2-------2---2----0--0---------|
A|--2-2-----2-----2-----2----3--3---3----x--x---------|


Important: The song above is NOT stored on the Chordie server. The original song is hosted at www.guitaretab.com. Chordie works as a search engine and provides on-the-fly formatting. Chordie does not index songs against artists/composers will. To remove this song please click here.

This song is displayed as text-only. Transposing and tuning is only available for chordpro-songs.

Login - add to songbook

Rating click stars to rate

Layout
Accuracy

SHARE PAGE  




You need to log in to post comments