Ta Noc Do Innych Jest Niepodobna

Maanam

 Em/BD5/ACsus2D5/A
    \   \ /  \ / \ /  \ / \ /  \ / \ /
E|--7--------X-5------X-3------X-5------|
B|--8--------X-5------X-3------X-5------|
G|*-9--------X-7------X-5------X-7-----*|
D|*-9--------X-7------X-5------X-7-----*|
A|--7--------X-5------X-3------X-5------|
E|--7--------X-5------X--------X-5------|

1. Kiedys tyle...

Bridge:_______________________________________end of Bridge
| | 3 times|
(VII) sus2
 Em/BD5/ACsus2D5CAmA5AmAmA5Am
   \ / \ / \ / \ / \ / \ / \ / \ /  \   \  \     \/\   \   \
E|-7-------x-5-----X-3-----X-5---3--0---0--0--|--0-----0--0--|
B|-8-------x-5-----X-3-----X-5---3--1---0--1--|--1-----0--1--|
G|-9-------x-7-----X-5-----X-7---5--2---2--2--|*-2-----2--2-*|
D|-9-------x-7-----X-5-----X-7---5--2---2--2--|*-2-----2--2-*|
A|-7-------x-5-----X-3-----X-5---3--0---0--0--|--0-----0--0--|
E|-7-------x-5-----X-------X-5----------------|--------------|


Chorus:
Rhy. Fig. 2:________________________________________________
|
 AmEmDC
E|--0---------------0---------------2---------------0---------|
B|--1---------------0---------------3---------------1---------|
G|*-2---------------0---------------2---------------0---------|
D|*-2---------------2---------------0---------------2---------|
A|--0---------------2-------------------------------3---------|
E|------------------0-----------------------------------------|

Teraz... sercu aby sercem bylo
i leze cicho cicho przy twym boku

____________________________________________________end of Rhy. Fig. 2
4 times| 2 times|
 AmEmDEmAmA5Am
E--0---------------0---------------2---------------0-----|--0---0--0--|
B--1---------------0---------------3---------------0-----|--1---0--1--|
G--2---------------0---------------2---------------0----*|*-2---2--2-*|
D--2---------------2---------------0---------------2----*|*-2---2--2-*|
A--0---------------2-------------------------------2-----|--0---0--0--|
E------------------0-------------------------------0-----|------------|

ta noc do innych jest niepodobna
godzina mija za godzina!

Repeat Rhy. Fig. 1 for verse 2; Bridge; Rhy. Fig. 2 for the chorus; end
with Rhy. Fig. 1 played 4 times; finish on Em(VII)/B.

Verse 1: Kiedys tyle mialam w glowie,
Na "tak", na "nie" zawsze odpowiedz
Usmiech nowy, twarz wciaz nowa,
Na kazdy glupi gest gotowa.
Kiedys tyle mialam w glowie,
Uciekalam i plakalam.
Bralam wszystko na powaznie,
To co dzisiaj jest nie wazne.

Chorus: Teraz mowie sercu aby sercem bylo,
Ta noc do innych jest niepodobna!
I leze cicho, cicho przy twym boku,
Godzina mija za godzina!

Verse 2: I juz wiem, ze spadnie deszcz,
Drzewa znow sie zazielenia.
Choc milknie glos co krzyczy we mnie,
Nie daje mi wytchnienia.
I nie pytaj mnie,
Czy dlugo bede z ciebie kpic,
Trawa wciaz jeszcze zielona,
Moja milosc jest szalona!

Chorus x2


A5 Am C Csus2 D D5 D5/A Em Em/B
variations - click chord images
Transpose chords:
Tuning:
Cool service:
View: Size:
A  A  A
Rating:
Layout:
  • Currently 3.7/5 Stars.
  • 1
  • 2
  • 3
  • 4
  • 5
 
Accuracy:
  • Currently 3.4/5 Stars.
  • 1
  • 2
  • 3
  • 4
  • 5
 
click stars to rate
Chordie recommends:
Learn how to play guitar at JamPlay.com
Songbook:
Login to add this song to your songbook
Support the artist
Preview/buy this song
MSN Music
Why this non-profit ad?

 
login to add comments/video/corrections