"yes"; ?> All These Years by Mac Macanally - guitar chords, guitar tabs and lyrics - chordie

All These Years

Mac Macanally

 Am9Em/ACCmaj9
|------------|-----0------0-|  (repeat)   |-------------|--------0----|
|-----0------|----0---0-----|             |-0/1----1----|-1/3---------|
|--------5---|---4------4---|             |------0---0--|------0---0--|
|---7--------|--5----5------|             |----2----2---|-----2---2---|
|-0----------|-0------------|             |-3-----3-----|-3-----3-----|
|------------|--------------|             |-------------|-------------|

 Am9Em/AAm9Em/A
She likes ad-venture with se-curity 
 Am9Em/ACCmaj9
And more than one man can pro-vide 
 Am9Em/AAm9Em/A
She planned ad-venture feeling sure that he 
 Am9Em/ACCmaj7
Would not be home til after five 
 GDm
|--------3--------------3--------|     |-1------1----1---0-----------|
|-0-------------0----------------|     |-----3-----3-------3---------|
|----0-------0-----0-------0-----|     |---2------2----2-------2-----|
|---0-------0-----0-------0------|     |-0-----0-----0-------0-------|
|--------------------------------|     |-----------------------------|
|-3----3--------3-----3----------|     |-----------------------------| 

He turned on the lights and turned them off again
 FA7mBm
|-----------------------------|     |----------------------|------|
|-1------1---1------1---------|     |-1-------1------5-----|--3---|
|----2-----2----2------2------|     |----0-----------------|------|
|---3-----3----3------3-------|     |---2-------2\/5-------|------|
|-----------------------------|     |-0----0---------------|--2---|
|-1----1-----1----1-----------|     |----------------------|------| 

He said the one thing he could say All these
 CG6
|-----------------------------|     |------------0----------------|
|-1-------1----1------1-------|     |-3------3-----3---3------3---|
|-----0------0----0------0----|     |----0------0--------0--------|
|---2-------2----2------2-----|     |---0------0--------0---------|
|-3-----3------3----3---------|     |-2-----2--------2------2-----|
|-----------------------------|     |-----------------------------| 

years Where have I been? I've been
 Am7(9C/GFmaj7
|-----------------------0-----|     |---------0-------------------|
|-1------1-------1------------|     |-1-----1---1-1-------1-------|
|----4------4-------0------0--|     |----2------------2-----------|
|---2------2-------2------2---|     |---2----2------2-------------|
|-0----0----------------------|     |-----------------------------|
|----------------3----3-------|     |-1----1-----1-------1--------| 

down the road to work and home a- gain And I'm still
 CG6Am7(9C/GFmaj7
here, until I'm gone   Don't you rub it in too hard that I've been wrong
 GCCmaj9CCmaj9
All these years            





















Am9 Bm C C/G Cmaj7 Cmaj9 Dm Em/A F Fmaj7 G G6
variations - click chord images
Transpose chords:
Tuning:
Cool service:
View: Size:
A  A  A
Rating:
Layout:
  • Currently 3.2/5 Stars.
  • 1
  • 2
  • 3
  • 4
  • 5
 
Accuracy:
  • Currently 3.9/5 Stars.
  • 1
  • 2
  • 3
  • 4
  • 5
 
click stars to rate
Chordie recommends:
Get acoustic guitar lessons and electric guitar lessons at JamPlay.com
Songbook:
Login to add this song to your songbook
Support the artist
Preview/buy this song
MSN Music
Why this non-profit ad?

 
login to add comments/video/corrections