Chordie logo


Sidstyler   Machinae Supremacy



Artist: Machinae Supremacy
Song:SidStyler
Tabbed by : Evo
                                                                            4x
||--------------------------------------------------------------------------||
||o------------------------------------------------------------------------o||
||--12-9---12-9---12-9---11-9---11-9---7-5---7-5---7-5---9-7---9-7---9-7----||
||-------9------9------9------9------9-----5-----5-----5-----7-----7--------||
||o------------------------------------------------------------------------o||
||--------------------------------------------------------------------------||


                                       PM|   PM|   PM|   PM|   PM|
|------------------------------------|----------------------------------|
|------------------------------------|----------------------------------|
|-12-9---12-9---12-9---12-9---12-9---|----------------------------------|
|------9------9------9------9------9-|----------------------------------|
|------------------------------------|-----5-----7-----8-----9-----9----|
|------------------------------------|-0-0-3-0-0-5-0-0-6-0-0-7-0-0-7----|


    PM|   PM|     PM|     PM|   PM|     PM|   PM|     PM|
||-----------------------------------------------------------------------||
||o---------------------------------------------------------------------o||
||-----------------------------------------------------------------------||
||-----------------------------------------------------------5--4--------||
||o-----7-----5-7-----5-7-----5-----7-5-----7-----5-7-----5--------7--5-o||
||--0-0---0-0-----0-0-----0-0-3-0-0-5-3-0-0---0-0-----0-0----------------||


  PM|   PM|     PM|     PM|   PM|     PM|   PM|     PM|
|-----------------------------------------------------------------------|
|-----------------------------------------------------------------------|
|-----------------------------------------------------------------------|
|---------------------------------------------------------5--4--5--4----|
|-----7-----5-7-----5-7-----5-----7-5-----7-----5-7-----5---------------|
|-0-0---0-0-----0-0-----0-0-3-0-0-5-3-0-0---0-0-----0-0-----------------|


  PM|   PM|     PM|     PM|   PM|     PM|   PM|     PM|
|----------------------------------------------------------------|
|----------------------------------------------------------------|
|----------------------------------------------------------------|
|----------------------------------------------------------------|
|-----7-----5-7-----5-7-----5-----7-5-----7-----5-7-----5-7-9----|


Important: The song above is NOT stored on the Chordie server. The original song is hosted at www.guitaretab.com. Chordie works as a search engine and provides on-the-fly formatting. Chordie does not index songs against artists/composers will. To remove this song please click here.

This song is displayed as text-only. Transposing and tuning is only available for chordpro-songs.

Login - add to songbook

Rating click stars to rate

Layout
Accuracy

SHARE PAGE  




You need to log in to post comments