Falling Down

Mad Caddies

E-------------------------------|

B---7-9--10-9---7---------------|
G-----------------7---6---------|
D-------------------------------|
A-------------------------------|
E-------------------------------|
E|---2---2---2---2--22---2---2---2--12---2---2---2--22---2---2-2-2-2-|
B|---2---2---2---2--22---2---2---2--12---2---2---2--22---2---2-2-2-2-|
G|---2---2---2---2--22---2---2---2--12---2---2---2--22---2---2-2-2-2-|
D|---4---4---4---4--44---4---4---4--34---4---4---4--44---4---4-4-4-4-|
A|---4---4---4---4--44---4---4---4--34---4---4---4--44---4---4-4-4-4-|
E|---2---2---2---2--22---2---2---2--12---2---2---2--22---2---2-2-2-2-|
E|--4---4---4---4---4---4---4-4-4-4-2---2---2---2---5---5-4---4-4---|
B|--6---6---6---6---6---6---6-6-6-6-2---2---2---2---7---7-6---6-6---|
G|--6---6---6---6---6---6---6-6-6-6-2---2---2---2---7---7-6---6-6---|
D|--6---6---6---6---6---6---6-6-6-6-4---4---4---4---7---7-6---6-6---|
A|--4---4---4---4---4---4---4-4-4-4-4---4---4---4---5---5-4---4-4---|
E|----------------------------------2---2---2---2-------------------|
E|-----------------------------------------------------------------|
B|-----------------------------------------------------------------|
G|-----------------------------------------------------------------|
D|---4---4---4---4--44---4---4---4--34---4---4---4--44---4---4---4-|
A|---4---4---4---4--44---4---4---4--34---4---4---4--44---4---4---4-|
E|---2---2---2---2--22---2---2---2--12---2---2---2--22---2---2---2-|
E|-------------------------------------------------------------|
B|-/18---\14---\18---------------------------------------------|
G|-----------------------10-11-7-6---6-----4-----2-------------|
D|-/15---\11---\15-------10-11-7-6---6-----4-----2-----2---2-3-|
A|------------------------8--9-5-4---4-----2-----0-----2---2-3-|
E|-----------------------------------------------------0---0-1-|

 F#mA
 I come around, but I don't see ya,
 BmDC#m
 It's kinda hard when you're already gone.
 F#mA
My eyes are numb; bloodshot and heavy,
 BmDC#m
 The voice's silent but approaching me soon.

Bridge:
 F#A
 He's got your name, he's got your number.
 BmDEm
 Just one more slip and he'll be dragging you on.
 F#A
 I feel the pain, oh i see the answers.
 BmDEm
 The voices ring out like the siren of song.

Chorus:
 F#DA
 You're gone, when you stop believing.
 F#DAEm
 It's hard to sleep at the end of the day.
 F#DA
 Move on, don't try to get even.
 F#DAEm
 Looking hard just to find a new end.
 D
Cause it's hard to die,
 BC#
 When you're already dead.

Interlude: F# F F# C# F# D C#

Horn solo: F# A Bm D Em x2

Bridge:
 F#A
 Just when I can't quite remember,
 BmDEm
 Just when I can't quite recall.
 F#A
 The day we met upon a cold December,
 BmDEm
 The day we met and I started to fall.

Chorus:

 F#DA
 You're gone, when you stop believing.
 F#DAEm
 It's hard to sleep at the end of the day.
 F#DA
 Move on, don't try to get even.
 F#DAEm
 Looking hard just to find a new end.
 D
Cause it's hard to die,
 C#F#
 When you're already dead.

E-----------------------------2-|
B-----------------------------2-|
G-----------------------------3-|
D---4-6---7-6---4-----------4-4-|
A-----------------5---4-4-----4-|
E-----------------------------2-|


A B Bm C# C#m D Em F# F#m
variations - click chord images
Transpose chords:
Tuning:
Cool service:
View: Size:
A  A  A
Rating:
Layout:
  • Currently 4/5 Stars.
  • 1
  • 2
  • 3
  • 4
  • 5
 
Accuracy:
  • Currently 1.5/5 Stars.
  • 1
  • 2
  • 3
  • 4
  • 5
 
click stars to rate
Chordie recommends:
Get acoustic guitar lessons and electric guitar lessons at JamPlay.com
Songbook:
Login to add this song to your songbook
Support the artist
Preview/buy this song
MSN Music
Why this non-profit ad?

 
login to add comments/video/corrections