Guitar Tabs, Chords and Lyrics
Major upgrade!! After one year development the new version of Chordie is now online! Please give feedback.


GAGA LIFE.   THE MAD CAPSULE MARKETS

 
 E------------------------|
 B------------------------|
 G------------------------|
 D-0-0--0-0--0-0-0-0-4-5--| X2
 A-0-0--0-0--0-0-0-0-4-5--|
 D-0-0--0-0--0-0-0-0-4-5--|

 


 


 [+++++]Verse


 [+++++]  


 

 
 E--------------------------|
 B--------------------------|
 G--------------------------|
 D-0-0--0-0-0---0-0-0-0-4-5-|
 A-0-0--0-0-0---0-0-0-0-4-5-|
 D-0-0--0-0-0---0-0-0-0-4-5-|

 


 


 [++++++]Chorus


 [++++++]  


 

 
 E-------------------------------------------------------------------------|
 B-------------------------------------------------------------------------|
 G-------------------------------------------------------------------------|
 D-55555555-00000000-55555555-00000000-55555555-00000000-22222222-00000000-|
 A-55555555-00000000-55555555-00000000-55555555-00000000-22222222-00000000-|
 D-55555555-00000000-55555555-00000000-55555555-00000000-22222222-00000000-|

 


 


 [+++++]SOLO


 [+++++]  

 
 E-10---10---10---10---|
 B---------------------|
 G----7----7----7----7-| X2
 D---------------------|
 A---------------------|
 D---------------------|

 


 


 


 [+++++++++++]Ending Riff


 [+++++++++++]  


 

 
 E------------------|
 B------------------|
 G------------------|
 D------------------|


Important: The song above is NOT stored on the Chordie server. The original song is hosted at www.guitaretab.com. Chordie works as a search engine and provides on-the-fly formatting. Chordie does not index songs against artists'/composers' will. To remove this song please click here.

This song is displayed as text-only. Transposing and tuning is only available for chordpro-songs.
Rate #2 of 4 versions

Jango Player

Login - add to songbook

SHARE PAGE  




You need to log in to post comments