Guitar Tabs, Chords and Lyrics


At Least The Dark Dont Hide It  Magnolia Electric Company

-------------------------------------------------------------------------------



-------------------------------------------------------------------------------

e|---0-0-0-0--00--0-0--3-----------------------------------------------|
B|---1-1-1-0--00--1-1--3-----------------------------------------------|
G|---2-2-2-2--22--0-0--0-----------------------------------------------|
D|---2-2-2-2--22--2-2--0-----------------------------------------------|
A|-0-0-0-0-0--00--3-3--2-----------------------------------------------|
E|---------------------3-----------------------------------------------|
e|-------------------22-0----------------------------------------------|
B|-------------------33-3--0-1p0---------------------------------------|
G|---------------0---22-2--------0-------------------------------------|
D|---------0--0h2-0--00-0-------2--------------------------------------|
A|-----0h2-------------------------------------------------------------|
E|-3-3-----------------------------------------------------------------|
[G]something held me down and [D]made me make a [C]promise
[G]that i wouldn't tell when the [D]truth forgets about [C]us
[G]but saying it now comes [D]easi[C]ly
[G]after finding out how you'[D]ve been [C]using me
Chorus: Am C G w/ Intro Chorus riff

[Am]at least the [C]dark [G]don't hide it (x4)

Segue Riff 1: G D C

you [G]said you only wanted friends for [D]long [C]enough
to get [G]rid of them  [D]     [C]
[G]you found the kind you knew would only [D]kill [C]ya
so [G]you surro[D]unded yourself with [C]them

[Am]at least the [C]dark [G]don't hide it (x4)
Segue Breakdown2: G D C

[G]the world was empty on the [D]day when they [C]made it
[G]but heaven needed someplace to [D]throw all the [C]shit
[G]human hearts and pain should [D]never be [C]separate
[G]they wouldn't tear themselves apart [D]both [C]trying to fit

Chorus: Am C G

[Am]at least the [C]dark [G]don't hide it (x4)

Breakdown 3: G D C

[G]now death is going to hold us [D]up in the [C]mirror
[G]and say we're so much alike [D]we must be [C]brothers
see i've [G]had a job to d[D]o     [C]
[G]but people like you
have been doing it [D]to one [C]another

Chorus: Am C G

[Am]at least [C]i don't [G]hide it (x4)

Breakdown To End... on G

| / slide up
| \ slide down
| h hammer-on
| p pull-off
| ~ vibrato
| + harmonic
| x Mute note
===============================================================================

Important: The song above is NOT stored on the Chordie server. The original song is hosted at www.guitaretab.com. Chordie works as a search engine and provides on-the-fly formatting. Chordie does not index songs against artists'/composers' will. To remove this song please click here.

Text color:
Chord color:
Chord grids: 
Font size:    
Page size: 

Am C D G
variations - click chord images

Login - add to songbook

Transpose chords

Tuning

Rating click stars to rate

Layout
Accuracy

SHARE PAGE  




You need to log in to post comments