Guitar Tabs, Chords and Lyrics


Ancha Es Castilla  Mago De Oz

e|-------------------------------------------------------|


b|----8-----8--------------------------------------------|


g|------10----10----8--8----7-8-7-------------------8----|

d|----------------------------------10--10---8--10-------|
a|-------------------------------------------------------|
e|-------------------------------------------------------|
e|------------------------------------------------------------|
b|-------------------8--8------8--9--8------------------------|
g|--8--8--7--8--10--------10------------10--8--6--8--10--8--7-|
d|------------------------------------------------------------|
a|------------------------------------------------------------|
e|------------------------------------------------------------|
e|---------------------------------------------------8--------|
b|-------------------------------------------------8----------|
g|-----------------------8-----6-----------7-----9------------|
d|--10--8--10--8--10---8-----9--10------9----10---------------|
a|------------------------------------------------------------|
e|------------------------------------------------------------|
e-3---------6---------4--------3---------6--------8---|
b-4---------6---------4--------3---------8--------8---|
g-5---------7---------5--------4---------8--------9---|
d-5---------8---------6--------5---------8--------10--|
a-3---------8---------6--------5---------6--------10--|
e-3---------6---------4--------3---------6--------8---|
[Cm]Si crees que todo cuanto has escuch[A#]ado
[G#]no tiene contigo nada que v[A#]er
[Cm]estas amigo equivoc[A#]ado
[Cm]parate a ve[G]r, [Cm]parate a v[G]er
[D#]todos soñamos con [A#]ser,
[G#]un caballero y ten[A#]er,
[D#]algo por lo  que luch[A#]ar,
G# A# C*
y un amor que defender

Intro..x2

Verso 2
[Cm]si tienes un ideal, un princi[A#]pio
[Gm]defiendelo y aferrate a[A#] él
[Cm]alguien escribió que la vida es su[A#]eño
[Cm]y los sueño[G]s, [Cm]sueños so[G]n.

[D#]sé rebelde como el [A#]mar
[G#]sé noble por que al fi[A#]nal
d[D#]e esta vida llavar[A#]ás,
C# A# C*
tu libertad

Intro x2

verso 3
n[Cm]o importa cuan loco te crean tod[A#]os
m[Gm]antente firme, mantente en [A#]pie
b[Cm]uscar tu sitio, encontrarse a si mis[A#]mo
[Cm]es tu misió[G]n, [Cm]es la raz[G]ón

[D#]gritale al cielo que[A#] no
q[G#]uieres ser solo uno [A#]mas
a[D#]ncha es Castilla y el [A#]sol
C# A# C*
tu caminar guiará

Flauta
e|---------------------------------------------------------|
b|---8--8h5p8--8--9--11------------------------------------|
g|-----------------------11--------8--8h11p8-8--10--12--7--|
d|---------------------------------------------------------|
a|---------------------------------------------------------|
e|---------------------------------------------------------|
e|---------------------------------------------------------|
b|---8--8h9p8--8--9--11------------------------------------|
g|-----------------------10--8--7--5-----------------------|
d|---------------------------------------------------------|
a|---------------------------------------------------------|
e|---------------------------------------------------------|


Intro..x2

Autro
e|---------------------------------------------------------|
b|--------------------------------------------6--8---------|
g|--0--5--5--7--8--7--5--0-----0--5--5--7--8---------------|
d|---------------------------------------------------------|
a|---------------------------------------------------------|
e|---------------------------------------------------------|
                                    /----- esto es rapido ----/
e|---6--6--------6-----------------------------------------|
b|-8-------9--8-----10--10--8--6--10--8--6-----------------|
g|-------------------------------------------6--7--8--7--6-|
d|---------------------------------------------------------|
a|---------------------------------------------------------|
e|---------------------------------------------------------|



Saludos a todos

Important: The song above is NOT stored on the Chordie server. The original song is hosted at www.guitaretab.com. Chordie works as a search engine and provides on-the-fly formatting. Chordie does not index songs against artists'/composers' will. To remove this song please click here.

Text color:
Chord color:
Chord grids: 
Font size:    
Page size: 

A# Cm D# G G# Gm
variations - click chord images

Login - add to songbook

Transpose chords

Tuning

Rating click stars to rate

Layout
Accuracy

SHARE PAGE  




You need to log in to post comments