Guitar Tabs, Chords and Lyrics


Fuck It I Love You  Malcolm Middleton

e------(3)--(3)-----------------------------------------------------------|


b-------3----3-------------- 1-------1-----------1------------------------|


g-------0----0-------2------0-------0----------2--------------------------|

d-------0----2-------1------2-------------------2-------------7-------5---|
a----- -2----3-------2------3-------2-------------------------7-------5---|
E---- -3-------------------------------------------------------5-------3-|
e-----------------------------------------------|
b------------0----------------------3-----------|
g------------------------------0*-------0*------|
d------------0*----0*-H-2*----------------------|
a----- -----------------------------------------|
E---- -3*---------------------------------------|
[G]There’s a boxfull of showergels I’ve l[C]eft around the world [G]                            [C]
[G]In the toilets and bathrooms[G] I’ve been                   [G]                               [C]
[G]Chips of my youth fallen [C]off along the way     [G]                                 [C]
[G]I’ve been a long ti[C]me falling dow[G]n.            [C]              [b7]
[C]Fuck it I[C/B] love you, [G]there you go     [AM]
[C]Three little word[C/B]s on a mobile[G] phone                  [AM]
[G]When are you coming home?                [AM]
When are you coming home?
Don't want to be alone

Been careless with my friends
Even harder on myself
There’s A few stars in the sky I’ve killed
Pieces of my heart broken off along the way
I’ve been a long way falling down.

solo
e--------------------------------------------------------------|
b-----1-h 0------------------------------------------0---------|
g-----------------2--h-0-h 2-------0----------0-h--2-----------|
d--------------------------------------------------------------|        X2 THEN
a-----0----0-----0-----0----0---- (2)--------------------------|           A5 and G5
E----------------------------------3----------3----------------|



(VERSE)
I'm Pretending I’m pretending that everything’s ok
So many masks I’m wearing my own face
I can feel my toes burning from my deeds along the way
Before you get up you’ve got to go down.

(CHORUS)
[C]Fuck it I[C/B] love you, [G]there you go     [AM]
[C]Three little word[C/B]s on a mobile[G] phone                  [AM]

[G]When are you coming home?                [AM]
When are you coming home?
Don't want to be alone

Getting trounced being beaten at every turn
I record my mistakes but I never learn

Are you coming home?
When are you coming home?
Don't want to be alone

Important: The song above is NOT stored on the Chordie server. The original song is hosted at www.guitaretab.com. Chordie works as a search engine and provides on-the-fly formatting. Chordie does not index songs against artists'/composers' will. To remove this song please click here.

Text color:
Chord color:
Chord grids: 
Font size:    
Page size: 

Am C C/B G
variations - click chord images

Login - add to songbook

Transpose chords

Tuning

Rating click stars to rate

Layout
Accuracy

SHARE PAGE  




You need to log in to post comments