Chordie logo


Porque Te Vas   Mana



+-----------------------------------------------+
| Mana                                          |
| Porque te vas?                   |
                                 |
| Revolucion de Amor()                              |
+-------------------------------------------TAB-+
=============DEL ROCK EN ESPA~OL=================

Evil Crow

Intro : Acoustic Guitar
  2x
e|----------------------------------------------|
B|-3-----3-----2-----2-----0----0----2----2-----|
G|-2-----2-----2-----2-----2----2----2----2-----|
D|-0--0-----0-----0-----0-----0----0----0---0---|
A|----------------------------------------------|
E|----------------------------------------------|


 VERSE  and 1ST CHORUS
 2x
e|-----------------------------------------------|
B|-3-----3-----2-----2-----0----0----2----2------|
G|-2-----2-----2-----2-----2----2----2----2------|
D|-0--0-----0-----0-----0-----0----0----0---0----|
A|-----------------------------------------------|
E|-----------------------------------------------|

e|-----------------------------------------------|
B|-3------3-----2-----2-----0----0----2----2-----|
G|-0------0-----0-----0-----0----0----0----0-----|
D|-----------------------------------------------|
A|-----------------------------------------------|
E|-3----3---3-----3-----3-----3----3----3---3----|

e|-----------------------------------------------|
B|-0------0-----0-----0-------2----2----3----2---|
G|-0------0-----4-----2-------2----2----2----2---|
D|-----------------------------------------------|
A|----------------------------0--0----0----0-----|
E|-0----0----0------0-----0----------------------|


 On the 2nd part an Electric Guitar appears

    D    G    E    A
e|----------------------------------------------------|
B|----------------------------------------------------|
G|--7----4----0----4----------------------------------|
D|--7----5----2----7----------------------------------|
A|--5----5----2----7----------------------------------|
E|--x----3----0----5----------------------------------|


 BRIDGE

e|-------------|---------------|-------------------------------------|
B|-------------|---------------|-------------------------------------|
G|--------7-6--|----------4-2--|----------------------------0--------|
D|--5--7--7-7--|---5--7---4-2--|--5--7----------------------2--7-----|
A|--5--7--5-5--|---5--7---2-0--|--5--7-------5--------------2--7-----|
E|--3--5--x-x--|---3--5--------|--3--5----5-----5--5h7---5--0--5-----|


 SOLO
e|------------------------------------------------------------|
B|---------5-7-7/8--7--7~-~---------------7-7--8-8/10---------|
G|--5h7-7---------------------7/----0------------------9~-~---|
D|----------------------------7/------------------------------|
A|------------------------------------------------------------|
E|------------------------------------------------------------|

e|---------------------------------------------------------------|
B|---------------------------------------------------------------|
G|-7-9--9h11h9------------------------------4--4/7--6--6~-~------|
D|---------------7-9-----------------5--7------------------------|
A|--------------------7-9----------------------------------------|
E|-------------------------10--9---------------------------------|

 2x
e|----------------------------------------------|
B|----------------------------------------------|
G|----------------------------------------------|
D|-----12-----12-----12------12~-~--------------|
A|-/12----10------9------12---------------------|
E|----------------------------------------------|


Any corrections or comments e-mail me.



Important: The song above is NOT stored on the Chordie server. The original song is hosted at www.guitaretab.com. Chordie works as a search engine and provides on-the-fly formatting. Chordie does not index songs against artists/composers will. To remove this song please click here.

This song is displayed as text-only. Transposing and tuning is only available for chordpro-songs.

Login - add to songbook

Rating click stars to rate

Layout
Accuracy

SHARE PAGE  




You need to log in to post comments