Guitar Tabs, Chords and Lyrics


Me Voy A Convertir En Un Ave  Mana

1.------------------------------------------------------------|


2.------3---------------2-------------3---------------2-------|


3.---------4--------------2--------------4---------------3----|

4.---4--------4------2-------2-----5--------5------4--------4-|
5.-2---------------0------------------------------------------|
6.-------------------------------3--------------2-------------|
1.------------------------------------------------------------|
2.------3---------------2-------------3---------------2-------|
3.---------4--------------2--------------4---------------3----|
4.---4--------4------2-------2-----5--------5------4--------4-|
5.-2---------------0------------------------------------------|
6.-------------------------------3--------------2-------------|
Dol[Bm]or, am[G]or d[D]onde esta mi muj[A]er?
Dol[Bm]or, am[G]or d[D]onde esta mi muj[A]er?
1.------------------------------------------------------------|
2.------3---------------2-------------3---------------2-------|
3.---------4--------------2--------------4---------------3----|
4.---4--------4------2-------2-----5--------5------4--------4-|X4
5.-2---------------0------------------------------------------|
6.-------------------------------3--------------2-------------|


(Con estos acordes) Bm A G F#....
Mi cuerpo se esta separando de mi mente se quiere huir.
Mi mente que sueñe, que vuele muy, muy alto me lleve hasta ti.
Me voy a convertir en una ave
convertir en una ave, mis alas estan saliendo,
mis plumas estoy moviendo
cruzar por los barrotes, cruzar al horizonte
llegar hasta ti.


CORO:
Dol[Bm]or, am[G]or d[D]onde esta mi muj[A]er?
Dol[Bm]or, am[G]or d[D]onde esta mi muj[A]er?
Dol[Bm]or, am[G]or d[D]onde esta mi muj[A]er?
Dol[Bm]or, am[G]or d[D]onde esta mi muj[A]er?
OH,OH,OH,OH,OH,OH.................!!!!!

Important: The song above is NOT stored on the Chordie server. The original song is hosted at www.guitaretab.com. Chordie works as a search engine and provides on-the-fly formatting. Chordie does not index songs against artists'/composers' will. To remove this song please click here.

Text color:
Chord color:
Chord grids: 
Font size:    
Page size: 

A Bm D G
variations - click chord images

Login - add to songbook

Transpose chords

Tuning

Rating click stars to rate

Layout
Accuracy

SHARE PAGE  




You need to log in to post comments