Ojala Pudiera Borrarte

Mana

 C
ojala y pudiera ahogarte en un charco
D G D* G D*
lleno de rosas de amor

 CD
Ojala y se me olvidara hasta tu nombre  
G D* G D*
a verlo dentro del mar
 C
ojala y que tu sonrisa de verano
D G D* G D*
se pudiera ya borrar

Pre-Coro
 EmDCGD
 Vuelve corazon huu uuu vuelve a mi lado
 EmDCEmBmC
 vuelve corazon no vuelve no vuelve no vuelve no    

Coro:
 G
Ojala y te me borraras para siempre
 BmEmC
de mi vida para no volverte a ver    
 GBm
Y ojala te me borraras por las noches en el dia
 EmC
para no volverte a ver   
 G
Y Ojala te me esfumaras de mis sueños
 BmC
vida mia para no volverte a ver
 DG
no ni en sueños

Guitar1
G C D G x2

Guitar 2
 GCDG
E-||--------------------|-------------------------|
B-||--------4/5---------|-------------------------|
G-||--4-5-77------------|------4-5--5-----4---4---|
D-||-----------------5-4|----7--------------7-----|
A-||--------------------|-----------------------5-|
E-||--------------------|-------------------------|


 GCDG
E-||------------------------|------------------------|
B-||----------------8-------|-------10----87 8-------|
G-||-3/4--3/4--3/4-7-7--4/5-|---7-7------------------|
D-||-----5---5--------------|------------------------|
A-||------------------------|------------------------|
E-||------------------------|------------------------|

 CD
Como puedo yo borrar tus besos vida 
 G
estan tatuados en mi piel
 C
quiero de una vez por todas ya largarte
 DG
y borrarte de mi ser

G D* C D
Ojala y la lluvia me ahogue entre sus brazos
G D* G D*
para no pensar en ti
 C
o que pase un milagro o pase algo
D G D* G D*
que me lleve hasta ti

Pre-Coro
 EmDCGD
 Vuelve corazon huu uuu vuelve a mi lado
 EmDCEmBmC
 Pero no no no vuelve corazon no vuelve no vuelve no vuelve no   

Coro
 G
Ojala y te me borraras para siempre
 BmEmC
de mi vida para no volverte a ver   
 GBm
Y ojala te me borraras por las noches en el dia
 EmC
para no volverte a ver   
 G
Y Ojala te me esfumaras de mis sueños
 BmEmC
vida mia y que no me lluevas mas   
 GBm
Y ojala que la lluvia me ahogue entre sus brazos
 CDEmC
para no volverte a ver no ni en sueños   
 DGAmCD
Pa que pares de llover sueños       

G Am C D (x2)

G...


Am Bm C D Em G
variations - click chord images
Transpose chords:
Tuning:
Cool service:
View: Size:
A  A  A
Rating:
Layout:
  • Currently 3.3/5 Stars.
  • 1
  • 2
  • 3
  • 4
  • 5
 
Accuracy:
  • Currently 2.8/5 Stars.
  • 1
  • 2
  • 3
  • 4
  • 5
 
click stars to rate
Chordie recommends:
Learn to play guitar with video-based, online guitar lessons at JamPlay.com
Songbook:
Login to add this song to your songbook
Support the artist
Preview/buy this song
MSN Music
Why this non-profit ad?

 
login to add comments/video/corrections