Guitar Tabs, Chords and Lyrics


Added Family Solos  Mando Diao

[C#]       [F#]       [C#]                                                                            
|-------------------------------------------------------------------------|
|-------------------------------------------------------------------------|
|-------------------------------------------------------------------------|
|--------6/2-------------6-9-8------8/9/8--6-4---6/2--------6-9-8—-9/11---|
|----2-3-------4-------7-------9--------------------4-----7---------------|
|--4----------------7-9--------------------------------7-9----------------|



Verse 1:
There's a [F#]town I know where all who enters mutt[C#m]er
And the he[F#]ad has bought a crown that doesn't fi[C#m]t
So when co[B]ffee shops and supermarkets b[F#]urn down I know
They have [A]only the sun for [F#m]witness and b[E]eliever
that's a[C#m] shame 'Cause the s[A]tars have closed their [F#m]eyes so they won't [E]See

Refrain:
Jim ligh[E]t his management [B]
And [C#m]watch Dan lose his t[F#]ournament
And p[A]oor Dolores’ [E]hardcore stars
They tri[G#]ed to rule but r[C#m]an too far
And [E]Jimmy fucked the g[B]lam for fun
[C#m]As he screwed his c[F#]hicks he’s done
And a[A]ll you dandies [E]thought you won
Now look[G#] who's made it again


[C#m]        [F#]        [C#m]                                                                                                              
|------------------------------------------|
|------------------------------------------|
|------------------------------------------|
|---6/2----------6-9-8------8/9/8--6-4—6---|
|-------4------7-------9-------------------|
|----------7-9-----------------------------|

Verse 2:
There are [F#]bootlegs being released but nothing h[C#m]appens
There are f[F#]ather figures wearing shirts of [C#m]you
And the ch[B]urch of Sweden loves your dirty m[F#]akeup
'Cause you d[A]yed hair makes r[F#m]eflections in their s[E]ouls
it’s a s[C#m]in. Now my [A]team has closed their e[F#m]yes so they won’[E]t see

Refrain:
Jim ligh[E]t his management [B]
And [C#m]watch Dan lose his t[F#]ournament
And p[A]oor Dolores’ [E]hardcore stars
They tri[G#]ed to rule but r[C#m]an to far
And [E]Jimmy fucked the g[B]lam for fun
[C#m]As he screwed his c[F#]hicks he’s done
And a[A]ll you dandies [E]thought you won
Now look[G#] who's made it again


Solo:
[E]        [B]        [C#m]        [F#]        [A]    [E] [G#] [C#m] 
|--7---7---7--9--11/7------------------|
|----9---9------------9----------------|
|--------------------------------------|
|--------------------------------------|
|--------------------------------------|
|--------------------------------------|
|----7--8--9---9---9--11-—14/12--12--9-|
|--9---------9---9---------------------|
|--------------------------------------|
|--------------------------------------|
|--------------------------------------|
|--------------------------------------|
|-7--9---11/12--9--7--9--7-------------|
|---------------------------9--7--7—7b-|
|--------------------------------------|
|--------------------------------------|
|--------------------------------------|
|--------------------------------------|
|--------------------------------------|
|--------------------------------------|
|--9----9--11--8----8----8----8--------|
|----11----------10---10---10---10-----|
|--------------------------------------|
|--------------------------------------|
|--------------------------------------|
|--------------------------------------|
|--9--8--------------------------------|
|--------11----------------------------|
|-----------11—-9—-11------------------|
|--------------------------------------|



Refrain:
[E]See Jim light his m[B]anagement
And w[C#m]atch Dan lose his t[F#]ournament
And [A]poor Dolores’ h[E]ardcore stars
They tri[G#]ed to rule but [C#m]ran to far
And coc[E]aine snorting s[B]he-male-bands
[C#m]No lust in you st[F#]ands a chance
[A]To the killer-se[E]eds we spread
Now o[G#]pen your mouth if you dare

Outro: C#m

Important: The song above is NOT stored on the Chordie server. The original song is hosted at www.guitaretab.com. Chordie works as a search engine and provides on-the-fly formatting. Chordie does not index songs against artists'/composers' will. To remove this song please click here.

Text color:
Chord color:
Chord grids: 
Font size:    
Page size: 

A B C# C#m E F# F#m G#
variations - click chord images

Login - add to songbook

Transpose chords

Tuning

Rating click stars to rate

Layout
Accuracy

SHARE PAGE  




You need to log in to post comments