Guitar Tabs, Chords and Lyrics


Nebulous   Manic Drive



Band: Manic Drive
Song: Nebulous
Tabbed : Anto84


Video: http://it.youtube.com/watch?v=uKwf-JjyKPo


Clean + Wah

					(INTRO)


D|----------------------------------------------|
A|----------------------------------------------|
F|----------------------------------------------|
C|--x-x-2h4-0--x-x-2h4-0--x-x-0h1---------------| x3
G|--x-x-2h4-0--x-x-2h4-0--x-x-0h1---------------|
C|--x-x-2h4-0--x-x-2h4-0--x-x-0h1---------------|



D|-------------|
A|-------------|
F|-------------|
C|--x-x-2h4-0--| 
G|--x-x-2h4-0--|
C|--x-x-2h4-0--|


Distortion


D|----------------------------------------------|      

Important: The song above is NOT stored on the Chordie server. The original song is hosted at www.guitaretab.com. Chordie works as a search engine and provides on-the-fly formatting. Chordie does not index songs against artists/composers will. To remove this song please click here.

This song is displayed as text-only. Transposing and tuning is only available for chordpro-songs.

Login - add to songbook

Rating click stars to rate

Layout
Accuracy

SHARE PAGE  




You need to log in to post comments