Guitar Tabs, Chords and Lyrics


The Masses Against The Classes  Manic Street Preachers

[E5]Aaaaaaaaaaaaaaaaaaahhhhhhhhhhhhhhhhhhhhhhhhh


Verse (with SOME string muting-guitar w/distortion)


[G#]Hello it's us again,
[E]We're still so in love with you,
[B5]And yes we mean it to,
[F#]We're still so in love with you.
[G#]Hello it's us again,
[E]You thought you were our friends,
[B5]Success is an ugly word,
[F#5]Especially in your tiny world....
Chorus (")


[G#]The masses,
[E]Against the classes, I'm
[B5]Tired of giving a reason, when the
[F#5]Future is what we believe in.
[G#]We love the winter, it
[E]Brings us closer together,
Refrain (clean guitar: no distortion)


[B]Aaaaaaaaaaaa[A]hhhhhhhh    [D]            [C]
Verse (Same as previous verse)


So can you hurt us anymore,
Can you feel like it was before,
Or are you lost forever more,
Messed up and dead on alcohol,
Hello fond farewell my dear,
I hope you hear this nice and clear,
Our love is unconditional,
Our hate is yours to feed upon....


Chorus (Same as previous chorus)


[E5]Aaaaaaaaaaaaaaaaaaahhhhhhhhhhhhhhhhhhhhhhhhh
Solo (Second guitar plays verse chords)


e---------------------------------------------------
B-------------------------7-(8)---------7-(8)-------
G-------------6-(7)--------------6-(7)--------------
D-------6-(7)-------4-(5)---------------------4-(5)-
A-4-(5)---------------------------------------------
E---------------------------------------------------
e--------------------------15-------------------------------------------
B------------------------------------14-----14-----14-----14-----14-----
G--------------12-^14--/16----16-----16(18)-16(18)-16(18)-16(18)-16(18)-
D-/12--12-^14-----------------------------------------------------------
A-----------------------------------------------------------------------
E-----------------------------------------------------------------------
e--------------------------
B-14-----15-----16---------
G-16(18)-17(19)-18(20)-----
D--------------------------
A--------------------------
E--------------------------

The masses
Against the classes,
I'm tired of giving a reason,
When the future is what we believe in,
We love the winter,
It brings us closer together.


[E5]Aaaaaaaaaaaaaaaaaaahhhhhhhhhhhhhhhhhhhhhhhhh
Now there's lots of horrible but brilliant feedback,
a bit of guitar as well but just mess around. That's what James did.
Unless anyone can tell me how he plays it?
s_laughter_uk@yahoo.co.uk

Anyway, this all happens when James says "The slave begins by
demanding justice and ends by wanting to wear a crown."

Important: The song above is NOT stored on the Chordie server. The original song is hosted at www.guitaretab.com. Chordie works as a search engine and provides on-the-fly formatting. Chordie does not index songs against artists/composers will. To remove this song please click here.

Text color:
Chord color:
Chord grids: 
Font size:    
Page size: 

A B B5 C D E E5 F# F#5 G#
variations - click chord images

Login - add to songbook

Transpose chords

Tuning

Rating click stars to rate

Layout
Accuracy

SHARE PAGE  




You need to log in to post comments