Guitar Tabs, Chords and Lyrics


Suicide Is Painless  Manic Street Preachers

  Through [Dm7]Early morning [G7]fog I see
  [C]Visions of th[Am7]e things to be
  The [Dm7]pains that are wi[G7]thheld for me
  [C]I realize and [Am]I can see
Chorus:
  That [Dm7]Suicide is [G7]Painless
  [C]It brings on many [Am7]changes
  [Dm7]And I can take or [G7]leave it if I [Am]please


2)The game of life is hard to play
I'm going to lose it anyway
The losing card I'll someday lay
So this is all I have to say

Chorus:
  That [Dm7]Suicide is [G7]Painless
  [C]It brings on many [Am7]changes
  [Dm7]And I can take or [G7]leave it if I [Am]please


3)The sword of time will pierce our skins
It doesn't hurt when it begins
But as it works it's way on in
The pain grow stronger watch it grin
Chorus:
  That [Dm7]Suicide is [G7]Painless
  [C]It brings on many [Am7]changes
  [Dm7]And I can take or [G7]leave it if I [Am]please


4)A brave man once requested me
To answer questions that are key
Is it to be or not to be
And I replied "Oh why ask me."

Chorus:
  That [Dm7]Suicide is [G7]Painless
  [C]It brings on many [Am7]changes
  [Dm7]And I can take or [G7]leave it if I [Am]please
E|-----------------------|-----------------|

B|--------1--0-----------|--------1--0--1--|
G|-----2-----------------|-----2-----------|
D|--2--------------------|--2--------------|
A|-----------------------|-----------------|
E|-----------------------|-----------------|

Chorus:
  That [Dm7]Suicide is [G7]Painless
  [C]It brings on many [Am7]changes
  [Dm7]And I can take or [G7]leave it if I [Am]please

Chorus:
  That [Dm7]Suicide is [G7]Painless
  [C]It brings on many [Am7]changes
  And [Dm7]you can do the [G7]same thing if [Am]you please


                E|-----------------------|-----------------|

B|--------1--0-----------|--------1--0--1--|
G|-----2-----------------|-----2-----------|
D|--2--------------------|--2--------------|
A|-----------------------|-----------------|
E|-----------------------|-----------------|

Important: The song above is NOT stored on the Chordie server. The original song is hosted at www.guitaretab.com. Chordie works as a search engine and provides on-the-fly formatting. Chordie does not index songs against artists'/composers' will. To remove this song please click here.

Text color:
Chord color:
Chord grids: 
Font size:    
Page size: 

Am Am7 C Dm7 G7
variations - click chord images

Login - add to songbook

Transpose chords

Tuning

Rating click stars to rate

Layout
Accuracy

SHARE PAGE  




You need to log in to post comments