F#
You had my heart
 C#
and we'll never be worlds apart
 F
Maybe in magazines
 A#m
but you'll still be my star
 F#
Baby cause in the Dark
 C#
You can see shiny Cars
 F
And that's when you need me there
 A#m
With you I'll always share

 F#
 When the sun shines
 C#
We'll shine together
 F
Told you I'll be here forever
 A#m
Said I'll always be your friend

Took an oath
 F#
I'mma stick it out 'till the end
 C#
Now that it's raining more than ever
 F
Know that we still have each other
 A#m
You can stand under my Umbrella
 F#
You can stand under my Umbrella
 C#
(Ella ella eh eh eh)
 F
Under my umbrella
 A#m
(ella ella eh eh eh eh eh)
 F#
These fancy things,
 C#
will never come in between
 F
You're part of my entity
 A#m
Here for Infinity
 F#
When the war has took it's part
 C#
When the world has dealt it's cards
 F
If the hand is hard
 A#m
Together we'll mend your heart

Because...

 F#
 When the sun shines
 C#
We'll shine together
 F
Told you I'll be here forever
 A#m
Said I'll always be your friend

Took an oath
 F#
I'mma stick it out 'till the end
 C#
Now that it's raining more than ever
 F
Know that we still have each other
 A#m
You can stand under my Umbrella
 F#
You can stand under my Umbrella
 C#
(Ella ella eh eh eh)
 F
Under my umbrella
 A#m
(ella ella eh eh eh eh eh)

 B
 You can run into my Arms
 F#
 It's okay don't be alarmed
 C#
 (Come with Me)
 B
 So Gonna let the rain pour
 F#C#
 I'll be all you need and more    

 F#
 When the sun shines
 C#
We'll shine together
 F
Told you I'll be here forever
 A#m
Said I'll always be your friend

Took an oath
 F#
I'mma stick it out 'till the end
 C#
Now that it's raining more than ever
 F
Know that we still have each other
 A#m
You can stand under my Umbrella
 F#
You can stand under my Umbrella
 C#
(Ella ella eh eh eh)
 F
Under my umbrella
 A#m
(ella ella eh eh eh eh eh)

SOLO:
 F#C#FA#m
e|-------------------------------------------------------------------------|
B|-------------------------------------------------------------------------|
G|-------------------------------------------------------------------------|
D|-4--4/9-6-4-6-4-3-4-3--4/9-6-4-6-4-3-4----6-4-3-4-------1-3--------------|
A|---------------------------------------3----------1-3-4------------------|
E|-------------------------------------------------------------------------|


 F#C#FA#m
e|---------------------6-4---------8--8-6----------------------------------|
B|-7--7-6-4---4-6-6--6-----6-4---4--------9-------6------------------------|
G|----------6------------------6--------------6-8---8-6--------------------|
D|------------------------------------------8-----------8-6----------------|
A|-------------------------------------------------------------------------|
E|-------------------------------------------------------------------------|


 F#C#F
e|-------------------------------------------------------------------------|
B|-7-6-4-------------------------------------------------------------------|
G|-------6-5-3-5-6-5-3---5-6-5-3---3-3---3--------3-5-3---3-5-3------------|
D|---------------------6---------6-----6---6-4-3--------6-------6----------|
A|-------------------------------------------------------------------------|
E|-------------------------------------------------------------------------|


 A#mF
e|------------------------1------------|
B|--------------------2-3---4-2--------|
G|-3-5-3---3-5-3----3-----------3-1----|
D|-------6-------6------------------4--|
A|-------------------------------------|
E|-------------------------------------|				



A#m B C# F F#
variations - click chord images
Transpose chords:
Tuning:
Cool service:
View: Size:
A  A  A
Rating:
Layout:
  • Currently 3/5 Stars.
  • 1
  • 2
  • 3
  • 4
  • 5
 
Accuracy:
  • Currently 3.5/5 Stars.
  • 1
  • 2
  • 3
  • 4
  • 5
 
click stars to rate
Chordie recommends:
Check out JamPlay.com for online video guitar lessons
Songbook:
Login to add this song to your songbook
Support the artist
Preview/buy this song
MSN Music
Why this non-profit ad?

 
login to add comments/video/corrections