Guitar Tabs, Chords and Lyrics


Elvis Impersonator  Manic Street Preachers

[Gmaj7/B]                                     

[Gmaj7/C]Twenty foot high on Blackpool promenade,
[Dsus2]Fake royalty second hand sequin fa[Em]cace,
[F]Limited face [Am]paint,      and
[Bb]Dyed black [C#]quiff,
[G#]Overweight and out of [C]date.                      x2

((-<0-              ------2---------------2------
((-<2-              -3----3---3---3-------3--0-0-
((-<2-A5            -2----2---0^2-0^2-----2--0-0-
((-<2-              -0----0---0---0-------0--0-0-
((-<0-              -----------------------------
((----              -----------------------------

American trilogy in
All american trilogy in


-4----4---4-4-4-4----4------
-5----5---5-5-5-5----5--0-0-
-6----6---4^6-4^6----6--0-0-F#5
-6----6---4^6-4^6----6--0-0-
-4----4---4-4-4-4----4------
----------------------------

Lancashire pottery
used up cars and bottled beer


------2--------------2------
-3----3---3---3------3--0-0-A5
-2----2---0^2-0^2----2--0-0-
-0----0---0---0------0--0-0-
----------------------------
----------------------------

American trilogy
[in]All american       trilogy
the


-4----4---4-4-4-4----4------
-5----5---5-5-5-5----5--0-0-
-6----6---4^6-4^6----6--0-0- F#5   Bm
-6----6---4^6-4^6----6--0-0-
-4----4---4-4-4-4----4------
----------------------------

Lancashire
pottery it's so fucking funny
future's dead fundamentally
it's so fucking funny


[F#5]don't you know, it's so fucking funny,           don't you
it's absurd, it's so fucking funny, it's ab -
-4--4--------4------------4--4-----------4-------------))
-5-----5--------5---------6-----6-----------5----------))
-4--------4--------4------4--------4-----------4-------))
-6------------------------6-----------6----------------))
-4------------------------4----------------------------))
-------------------------------------------------------))

know
- surd______________________________


(12-string)
[A5]                                                                                      
-------------------------------------------------------
-------------------------------------------------------
-------------------------------------------------------
-------------------------------------2---2-(3)-0--2--4-
-0-0-0----2---2-(3)-2-0--2--4--5-----------------------
-------------------------------------------------------



[F#5]                                                                                     
------------------------------------------------------
------------------------------------------------------
----------4---4-4^6--4--------------------------------
------6-----------------6--4-4------------/---------7-
-4-------------------------------------------0--7^9---
------------------------------------------------------

[D5]                                                                                     
------------------------------------------------------
------------------------------------------------------
---------------------------6--7----9-(10)-9--7--9\----
-(7)----9--9-(10)-9--7--9-----------------------------
------------------------------------------------------
------------------------------------------------------

[C#m]                                                                                     
-------------------------------------------------------
-------------------------------------------------------
---8^9^8-----8-----------------------------------------
----------11---11^9----9------9-11-11-(12)-11--11^9----
--------------------11---9^11--------------------------
-------------------------------------------------------

[F#5]                                                                                     
--------------------2-----------------------------------------
--------------------3--------------0--------------------------
--------------------4--------------0--------------------------
-11--------11-\-----4--------------0----4----4---4-4--4--4----
-----------------0--2--------------0----4----4---4-4--4--4--0-
----------------------------------------2----2---2-2--2--2----

(6-string)
[Bm]                                               [C#m7]                                      
-2-----------------4--4--------4-----------
-3-----------------5-----5--------5--------
-4-----------------4--------4--------4-----
-4-----------------6-----------------------
-2-----------------4-----------------------
-------------------------------------------



[C#m7]                                                                                     
-4--4--------4--------------4-----------------
-6-----6--------6-----------5-----------------
-4--------4--------4--------4-----------------
-6--------------------6-----6-----------------
-4--------------------------4-----------------
----------------------------------------------

Twenty foot high on Blackpool promenade...
Key:
((--------))
((--------))
((--------))Repeat anything between these brackets.
((--------))
((--------))
((--------))



-<0-
-<2-
-<2-Rake up: drag the pick up the strings
-<2-
-<0-
[----]                                     

-7^9-Hammer-on: play the first note normally and then fret the second
note without picking the second and without taking your finger off the
first note.


-9^7-Pull-off: the opposite of hammer-on.


That's it. Hope you like the tab, but if you don't or if you have a
question or any comments please email me at s_laughter_uk@yahoo.co.uk

Important: The song above is NOT stored on the Chordie server. The original song is hosted at www.guitaretab.com. Chordie works as a search engine and provides on-the-fly formatting. Chordie does not index songs against artists'/composers' will. To remove this song please click here.

Text color:
Chord color:
Chord grids: 
Font size:    
Page size: 

A5 Am Bb Bm C C# C#m C#m7 D5 Dsus2 Em F F#5 G# Gmaj7/B Gmaj7/C
variations - click chord images

Login - add to songbook

Transpose chords

Tuning

Rating click stars to rate

Layout
Accuracy

SHARE PAGE  




You need to log in to post comments