Guitar Tabs, Chords and Lyrics


Interiors   Manic Street Preachers








Manic Street Preachers - INTERIORS (SONG FOR WILLEM DE KOONING)
 Of 1996's 'Everything Must Go'


verse:
e-------------------------------------------------------
b-14---14-14----14---14-14------9---10-10----9---10-10--
g-14---14-14----14---14-14------9---9--9-----9---9--9---
d-14---14-14----14---14-14------9---11-11----9---11-11--
a-------------------------------------------------------
E-------------------------------------------------------

c#       D E
say you can remember say where is the tomorrow say where you're coming from
      D
say what you have left us


chorus:
  E    D(?)       A
  are  we  to  tired  to  try  and understand
e----------------------------------------------------------------------------
b----------------------------------------------------------------------------
g-11~~~-9~~--------------------------------------4b-2-2-4b-2-2-4b-2-4-6-6b-6-
d---------- ---11~~~--9~~~~~--s\---------------------------------------------
a----------------------------------------------------------------------------
E----------------------------------------------------------------------------

solo:

e------------------------------------------------------------------II----
b------------------------------------------------------------------II----
g------------------------------------------------------------------II----
d--------------7---------------------------------------------------II----
a-5--5-5-5-4-5---5-4-4---4-4-4-2-4-5-4-2---------------------------II----
E----------------------------------------5---5-5-5-4-5-7-5-4-0--0--II----

who sees the interiors like young Willem once did
your beautiful triangle of distortion
now you seem to forget it so much
who sees the interiors like young Willem once did
say you can remember say where is the tomorrow
say where you are coming from
say what you have left us
are we too tired to try and understand
that nothing is nothing on that we depend
take my hand together and we will cry
it really makes no difference
to what you see inside to what you see inside
who sees the interiors like young Willem you once did
a beautiful landscape of your nation
another era is not forthcoming
who sees the interiors like young Willem once did
say you can remember say where is the tomorrow
say where you are coming from say what you have
are we too tired to try and understand
that nothing is nothing on that we depend
take my hand together and we will cry
it really makes no difference


Important: The song above is NOT stored on the Chordie server. The original song is hosted at www.guitaretab.com. Chordie works as a search engine and provides on-the-fly formatting. Chordie does not index songs against artists'/composers' will. To remove this song please click here.

This song is displayed as text-only. Transposing and tuning is only available for chordpro-songs.

Login - add to songbook

Rating click stars to rate

Layout
Accuracy

SHARE PAGE  




You need to log in to post comments