Guitar Tabs, Chords and Lyrics


Die In The Summertime  Manic Street Preachers

E ----------------------------------------BU-----------|


B -9----9--9----9----9-9-----9----9-9----7--9~~~~~~~~~-|


G -----------------------------------------------------|

D -----------------------------------------------------|
A -----------------------------------------------------|
E -----------------------------------------------------|
E ----------------------------------------------------------|Or finish with
B -----------------------------------------------------C#5--|
G -------------------------------------------------*------6-|
D ---0---0--0-0------3---3--3-3------0---0--0-0----3------6-|
A -4---4---4-4-----4---4---4-4-----4---4---4-4-----4------4-|
E -------------------------------------------------*--------|
E ------------------------------------------------------------------------|
B ------------------------------------------------------------------------|
G ------------------------------------------------------------------------|
D -----------------------3---3--3-3-4p3-------------------3--3--3---------|
A -4-5--4-5--4-5-4-5---4---4---4-4-----4-4-5-4-5-4-5-4-5-4--4--4--4----2--|
E ------------------------------------------------------------------2h4---|
  [C#5]    [D5]          [B5]    [C#5]    [F5]           [C#5]      [C#5]    [D5]          [B5]    [C#5]                       
E --------------------------------------------------------------|
B --------------------------------------------------------------|
G --6/7-7-7-7-7---4---6/10-10-10-10--6-6---6/7-7-7-7-7---4---6--|
D --6/7-7-7-7-7---4---6/10-10-10-10--6-6---6/7-7-7-7-7---4---6--|
A --4/5-5-5-5-5---2---4/8--8--8--8---4-4---4/5-5-5-5-5---2---4--|
E --------------------------------------------------------------|

Chorus

[A5]I have [C#5]crawled so far sideways,

[A5]I recognise just [C#5]traces of [B5]creation,
[A5]I wanna [C#5]die, Die in the summertime
[A5]I wanna die[C#5]
Solo

E ----------------------------------7--10--|
B ---------------------------7--10---------|
G ---------------------7--9----------------|
D ---------------7--9----------------------|
A ---------7--9----------------------------|
E --7--10----------------------------------|				


Important: The song above is NOT stored on the Chordie server. The original song is hosted at www.guitaretab.com. Chordie works as a search engine and provides on-the-fly formatting. Chordie does not index songs against artists'/composers' will. To remove this song please click here.

Text color:
Chord color:
Chord grids: 
Font size:    
Page size: 

A5 B5 C#5 D5 F5
variations - click chord images

Login - add to songbook

Transpose chords

Tuning

Rating click stars to rate

Layout
Accuracy

SHARE PAGE  




You need to log in to post comments