Guitar Tabs, Chords and Lyrics


Soulmates   Manic Street Preachers



Main riff

-|-------------------------------------------------------|
-|------7---------7-----------7--------------9------7----|
-|----9---8-----9---8------9----8---------6----9-9-------|
-|----------9----------9-----------9--6h7----------------|
-|-7----------7----------7-------------------------------|
-|-------------------------------------------------------|

-|-x-|-
-|-x-|-
-|-8-|-
-|-9-|-
-|-9-|-
-|-7-|-

Chorus:

Em Bm C G
-|-x---x---x---x--|
-|-8---7---8---3--|
-|-9---7---9---4--|
-|-9---9---10--5--|
-|-7---9---10--5--|


Important: The song above is NOT stored on the Chordie server. The original song is hosted at www.guitaretab.com. Chordie works as a search engine and provides on-the-fly formatting. Chordie does not index songs against artists'/composers' will. To remove this song please click here.

This song is displayed as text-only. Transposing and tuning is only available for chordpro-songs.

Login - add to songbook

Rating click stars to rate

Layout
Accuracy

SHARE PAGE  




You need to log in to post comments