Guitar Tabs, Chords and Lyrics


An Open Letter To The Lyrical Trainspotter  Mansun

[Dm]   [F]  [A#]   [Am]                             
CHORUS

play these chords (it's easier than it looks, once you have it):

v: downstroke
^: upstroke
v v ^ v v ^
|-0--0-0-0--0-0-|-0--0-0-0--0-0-|-0--0-0-0--0-0-|-0--0-0-0--0-0-|
|-3--3-1-1--1-1-|-3--3-1-1--1-1-|-1--1-0-0--0-0-|-1--1-0-0--0-0-|
|-0--0-0-0--0-0-|-0--0-0-0--0-0-|-2--2-2-2--2-2-|-2--2-2-2--2-2-|
|-2--2---2--2---|-2--2---2--2---|-2--2---2--2---|-2--2---2--2---|
|-3--3---3--3---|-3--3---3--3---|-0--0---0--0---|-0--0---0--0---|
|---------------|---------------|---------------|---------------|

the lyrics... mean that much. they're just...

v v ^ v v ^
|-0--0-0-0--0-0-|-0--0-0-0--0-0-|-0-------------|---------------|
|-1--1-1-1--1-1-|-0--0-0-0--0-0-|-5-------------|---------------|
|-2--2-2-2--2-2-|-2--2-2-2--2-2-|-5-------------|---------------|
|-3--3---3--3---|-3--3---3--3---|-3-------------|---------------|
|-3--3---3--3---|-3--3---3--3---|-5-------------|---------------|
|---------------|---------------|---------------|---------------|

lovely voice they aren't... much______


MIDDLE

[C/G]They [Am/D]all believe [Am7]me    [C]  [C/B]
[C/G]it's [Am/D]all so [Am7]easy [Fm]now

And it ends on a C


CHORDS:
Dm - xx0231
[F]A#   [-]- [133211]x13331
F/A - x03211
C - x32010
Am - x02210
C/G - 332010
Am/D - x00210
Am7 - x02010
C/B - x22010

Important: The song above is NOT stored on the Chordie server. The original song is hosted at www.guitaretab.com. Chordie works as a search engine and provides on-the-fly formatting. Chordie does not index songs against artists'/composers' will. To remove this song please click here.

Text color:
Chord color:
Chord grids: 
Font size:    
Page size: 

A# Am Am/D Am7 C C/B C/G Dm F Fm
variations - click chord images

Login - add to songbook

Transpose chords

Tuning

Rating click stars to rate

Layout
Accuracy

SHARE PAGE  




You need to log in to post comments