Guitar Tabs, Chords and Lyrics


La Chinits  Manu Chao

   [4/4] Gtr I
E Q E Q E E +E Q E H
||------------------|-------------------|
||o-----------------|--------1-1--------|
||------------------|-----2--2-2--------|
||--3-3--3-3-----3--|-(3)-3-------------|
||o------------3----|-------------------|
||------------------|-------------------|

|
| Gtr III
| E E Q E E Q E E Q E E Q
||--x-x--1---x-x-1--|--x--x--1---x-x-1--|
||o-x-x--1---x-x-1--|--x--x--1---x-x-1--|
||--x-x--2---x-x-2--|--x--x--2---x-x-2--|
||--x-x--3---x-x-3--|--x--x--3---x-x-3--|
||o-x-x--3---x-x-3--|--x--x--3---x-x-3--|
||--x-x--1---x-x-1--|--x--x--1---x-x-1--|



Gtrs I, II
+H H +W
|---------------------|------------------|
|-(1)------(1)--------|------------------|
|-(2)------(2)--------|------------------|
|---------------------|------------------|
|---------------------|------------------|
|-----------1---------|-(1)--------------|

|
| E E Q E E Q E E Q E E Q
|--x--x--1-----x-x-1--|--x--x--1--x-x-1--|
|--x--x--1-----x-x-1--|--x--x--1--x-x-1--|
|--x--x--2-----x-x-2--|--x--x--2--x-x-2--|
|--x--x--3-----x-x-3--|--x--x--3--x-x-3--|
|--x--x--3-----x-x-3--|--x--x--3--x-x-3--|
|--x--x--1-----x-x-1--|--x--x--1--x-x-1--|



Gtr I
E Q E Q E E +E Q E +H
|-----------------|---------------------|
|-----------------|---------------------|
|-----------------|-----4--2-(2)--------|
|-3-3--3-3-----3--|-(3)-5--3-(3)--------|
|------------3----|---------------------|
|-----------------|---------------------|

|
| Gtr III
| E E Q E E Q E E Q E E Q
|-x-x--1---x-x-1--|--x--x--1-----x-x-1--|
|-x-x--1---x-x-1--|--x--x--1-----x-x-1--|
|-x-x--2---x-x-2--|--x--x--2-----x-x-2--|
|-x-x--3---x-x-3--|--x--x--3-----x-x-3--|
|-x-x--3---x-x-3--|--x--x--3-----x-x-3--|
|-x-x--1---x-x-1--|--x--x--1-----x-x-1--|



Gtrs I, II
+H H +W
|---------------------|-------------------||
|---------------------|------------------o||
|-(2)------(2)--------|-------------------||
|-(3)------(3)--------|-------------------||
|---------------------|------------------o||
|-----------1---------|-(1)---------------||

|
| E E Q E E Q E E Q E E Q
|--x--x--1-----x-x-1--|--x--x--1--x-x-1---||
|--x--x--1-----x-x-1--|--x--x--1--x-x-1--o||
|--x--x--2-----x-x-2--|--x--x--2--x-x-2---||
|--x--x--3-----x-x-3--|--x--x--3--x-x-3---||
|--x--x--3-----x-x-3--|--x--x--3--x-x-3--o||
|--x--x--1-----x-x-1--|--x--x--1--x-x-1---||



  Gtr III           [F]                [C7]       [F]
E E Q E E Q E E Q E E Q E E Q E E Q E E Q E E Q
|-x-x-1--x-x-1--||--x-x-1--x-x-1--|-x-x-0--x-x-1--|-x-x-1--x-x-1--|
|-x-x-1--x-x-1--||o-x-x-1--x-x-1--|-x-x-1--x-x-1--|-x-x-1--x-x-1--|
|-x-x-2--x-x-2--||--x-x-2--x-x-2--|-x-x-3--x-x-2--|-x-x-2--x-x-2--|
|-x-x-3--x-x-3--||--x-x-3--x-x-3--|-x-x-2--x-x-3--|-x-x-3--x-x-3--|
|-x-x-3--x-x-3--||o-x-x-3--x-x-3--|-x-x-3--x-x-3--|-x-x-3--x-x-3--|
|-x-x-1--x-x-1--||--x-x-1--x-x-1--|--------x-x-1--|-x-x-1--x-x-1--|



  E E Q  E E Q   3x E E Q  E E Q    E E Q  E E Q   [2/4] W    [4/4]  W
|-x-x-0--x-x-1---||-x-x-1--x-x-1--|-x-x-0--x-x-1-||----||-----|
|-x-x-1--x-x-1--o||-x-x-1--x-x-1--|-x-x-1--x-x-1-||----||-----|
|-x-x-3--x-x-2---||-x-x-2--x-x-2--|-x-x-3--x-x-2-||----||-----|
|-x-x-2--x-x-3---||-x-x-3--x-x-3--|-x-x-2--x-x-3-||----||-----|
|-x-x-3--x-x-3--o||-x-x-3--x-x-3--|-x-x-3--x-x-3-||----||-----|
|--------x-x-1---||-x-x-1--x-x-1--|--------x-x-1-||----||-----|



$
    [F]E E Q  E E Q    [C7]E E Q  [F]E E Q    E E Q  E E Q    [C7]E E Q  [F]E E Q
||--x-x-1--x-x-1--|-x-x-0--x-x-1--|-x-x-1--x-x-1--|-x-x-0--x-x-1----||
||o-x-x-1--x-x-1--|-x-x-1--x-x-1--|-x-x-1--x-x-1--|-x-x-1--x-x-1---o||
||--x-x-2--x-x-2--|-x-x-3--x-x-2--|-x-x-2--x-x-2--|-x-x-3--x-x-2----||
||--x-x-3--x-x-3--|-x-x-2--x-x-3--|-x-x-3--x-x-3--|-x-x-2--x-x-3----||
||o-x-x-3--x-x-3--|-x-x-3--x-x-3--|-x-x-3--x-x-3--|-x-x-3--x-x-3---o||
||--x-x-1--x-x-1--|--------x-x-1--|-x-x-1--x-x-1--|--------x-x-1----||



  [F]E E Q  E E Q    [C7]E E Q  [F]E E Q    E E Q  E E Q    [C7]E E Q  [F]E E Q
|-x-x-1--x-x-1--|-x-x-0--x-x-1--|-x-x-1--x-x-1--|-x-x-0--x-x-1--*|
|-x-x-1--x-x-1--|-x-x-1--x-x-1--|-x-x-1--x-x-1--|-x-x-1--x-x-1--*|
|-x-x-2--x-x-2--|-x-x-3--x-x-2--|-x-x-2--x-x-2--|-x-x-3--x-x-2--*|
|-x-x-3--x-x-3--|-x-x-2--x-x-3--|-x-x-3--x-x-3--|-x-x-2--x-x-3--*|
|-x-x-3--x-x-3--|-x-x-3--x-x-3--|-x-x-3--x-x-3--|-x-x-3--x-x-3--*|
|-x-x-1--x-x-1--|--------x-x-1--|-x-x-1--x-x-1--|--------x-x-1--*|


+ - note tied to previous; . - note dotted; .. - note double dotted

Tablature Legend
----------------

h - hammer-on
p - pull-off
b - bend
pb - pre-bend
r - bend release (if no number after the r, then release immediately)
/\ - slide into or out of (from/to "nowhere")
s - legato slide
S - shift slide
- natural harmonic
(n) - artificial harmonic
n(n) - tapped harmonic
~ - vibrato
tr - trill
T - tap
TP - trem. picking
PM - palm muting
\n/ - tremolo bar dip; n = amount to dip
\n - tremolo bar down
n/ - tremolo bar up
/n\ - tremolo bar inverted dip
= - hold bend; also acts as connecting device for hammers/pulls
<> - volume swell (louder/softer)
x - on rhythm slash represents muted slash
o - on rhythm slash represents single note slash

Misc Legend
-----------

| - bar
|| - double bar
||o - repeat start
o|| - repeat end
*| - double bar (ending)
: - bar (freetime)
$ - Segno
& - Coda

Important: The song above is NOT stored on the Chordie server. The original song is hosted at www.guitaretab.com. Chordie works as a search engine and provides on-the-fly formatting. Chordie does not index songs against artists'/composers' will. To remove this song please click here.

Text color:
Chord color:
Chord grids: 
Font size:    
Page size: 

C7 F
variations - click chord images

Login - add to songbook

Transpose chords

Tuning

Rating click stars to rate

Layout
Accuracy

SHARE PAGE  




You need to log in to post comments