Guitar Tabs, Chords and Lyrics


Keegans Christmas  Marcy Playground

e ----7---- ----4---- ----2---- ----1---- ----0---- ----0----


B ----9---- ----5---- ----4---- ----3---- ----2---- ----0----


G ----9---- ----6---- ----4---- ----3---- ----2---- ----1----

D ----9---- ----6---- ----4---- ----3---- ----2---- ----2----
A ----7---- ----4---- ----2---- ----1---- ----0---- ----2----
E ----0---- ----x---- ----x---- ----x---- ----x---- ----0----
      [G#]                                                                     
e ----4----|
B ----4----|
G ----5----|
D ----6----|
A ----6----|
E ----4----|

The E to C#m for the soft parts in the beginning are played like so:

E C#m and the B:
e -----------------------------------|
B -----9------------5-------------4--|
G -------9--------6-------------4----|
D -------------6--------------4------|
A --7-------4---------------2--------|
E -----------------------------------|


Intro:

[E-C#m]       [E-C#m]      [E-C#m]      [E-C#m-B]                  
[E]Three [C#m]days 'til [E]Christ[C#m]mas
[E]I can't[C#m] wait that [B]long

B A# A E*
If I could, I'd be a saint
A E*
I have this complaint
A E* B
Why can't Christmas be today?
B A# A E* B
Three days is much too far away

(E-C#m)4x

[E]Dad [C#m]said, "Go[E] to[C#m] bed."
Cuz t[E]hat's where[C#m] I should[B] be
B A# A E*
But I can't simply because
A E*
That crazy Santa Clause
A E* B
Keeps knock, knock, knockin' on the roof
B A# A E* B
It's really him Dad it's the truth

(E-C#m, E-C#m, E-C#m, A-E*)

[E]Yuletide [C#m]Christmas
A E*
Angels carolling
[E]Starlight, [C#m]snowflakes
A E*
Drifting, warbling
[B]Past the window frame
Past the [G#]places where[A] I d[E]ream

(E-C#m) 4x

[E]Late [C#m]night, [E]Christmas [C#m]Eve
[E]I'm fi[C#m]nally in b[B]ed
[B]And t[A#]hen bo[A]om, bam
E*
Get out of bed
A E*
And nearly cracked my head
A E* B
As I go flyin' down the stairs
[B]  [A#]   [A] To greet my [E]Mom and Dad on [B]Christmas D[E]ay

(I c[E]an't w[C#m]ait for Ch[E]ristmas [C#m]day

Important: The song above is NOT stored on the Chordie server. The original song is hosted at www.guitaretab.com. Chordie works as a search engine and provides on-the-fly formatting. Chordie does not index songs against artists'/composers' will. To remove this song please click here.

Text color:
Chord color:
Chord grids: 
Font size:    
Page size: 

A A# B C#m E G#
variations - click chord images

Login - add to songbook

Transpose chords

Tuning

Rating click stars to rate

Layout
Accuracy

SHARE PAGE  




You need to log in to post comments