"yes"; ?> Ballad Of Aslan by Marcy Playground - guitar chords, guitar tabs and lyrics - chordie

Ballad Of Aslan

Marcy Playground

 GCF
e ----3---- ----0---- ----1----|
B ----0---- ----1---- ----1----|
G ----0---- ----0---- ----2----|
D ----0---- ----2---- ----3----|
A ----2---- ----3---- ----3----|
E ----3---- ----0---- ----1----|


 G
 High up in a mountain in a mountain tree
 C
 There jumped a little frog does alchemy
 GFG
 And he makes liquid light and color      

 G
 When I was on the mountain in the mountain tree
 C
 I drank a funky potion that the frog made me
 GFG
 As he was singin' a song about Aslan     

CHORUS:

And he was singing:
 CG
 Hey-o, he comes from the eastern sky-o, yeah-yah-ah
 CG
 Hey-o, he comes from the eastern sky-o, yeah-yah-ah
 CGFG
 Hey-o, he comes from the eastern sky-o, yeah-yah-ah     

 G
 Giant birds of ancient, overhead in motion
 C
 They called to the mountain wouldn't trouble the ocean
 GFG
 And out tumbled the Narnian Children     

 G
 I reeled with the dragons and the funny-colored knights
 C
 Til my eyes exploded into diamond lights
 GFG
 Electric lights and sapphire-blue     

(CHORUS)

(distorted SOLO)

 G
e ---------------------------------------------|
B ------------------------------3--------------|
G --0--0-4--0-5--4-2--0-0--0-4----5--4-2-0-----|
D ---------------------------------------------|
A ---------------------------------------------|
E ---------------------------------------------|

 C
e ---------------------------------------------|
B ---------------------------------------------|
G ------------------------------0--------------|
D -------2----3--2-0---------2----3--2-0-------|
A --3--3----3---------3-3--3-------------3-----|
E ---------------------------------------------|


 GFG
e ---------------------------------------------|
B ------------------------------3--------------|
G --0--0-4--0-5--4-2--0-0--0-4----5--4-2-0-----|
D ---------------------------------------------|
A ---------------------------------------------|
E ---------------------------------------------|


 G
 When the moon of lapis blue was up in the tippy-drippin' light
 C
 Upon the spatial-spectral electrical warm and windy night
 GFG
 I was leaning on a sycamore dreamin'     

 G
 Ab'lee dab'lee skiddle-dee-beep, n'bop, n'diddle-dee-dee
 C
 And high upon a mountain in my own tree
 GFG
 You'll find me singin' to the ballad of Aslan      

And I'll be singin'....

(CHORUS, play F-G twice)


C F G
variations - click chord images
Transpose chords:
Tuning:
Cool service:
View: Size:
A  A  A
Rating:
Layout:
  • Currently 2/5 Stars.
  • 1
  • 2
  • 3
  • 4
  • 5
 
Accuracy:
  • Currently 3.4/5 Stars.
  • 1
  • 2
  • 3
  • 4
  • 5
 
click stars to rate
Chordie recommends:
Get acoustic guitar lessons and electric guitar lessons at JamPlay.com
Songbook:
Login to add this song to your songbook
Support the artist
Preview/buy this song
MSN Music
Why this non-profit ad?

 
login to add comments/video/corrections