On Darkened Wings

Marduk


Marduk: On Darkened Wings tuned in d
|----------------------------------| |----------------------------------| |----------------------------------| |-999999101010777-9999991010107710-| |-7777778-8-8-555-7777778-8-8-558--| |----------------------------------|
|------------------------------------------| |------------------------------------------| |------------------------------------------| |-----------101010777-----------1010107710-| |-----------8-8-8-555-----------8-8-8-558--| |-0-000-0-0-----------0-000-0-0------------| . ... . . . ... . . |------------------------------------| |------------------------------------| |------------------------------------| |-7--------7--------8--------8-8-9-9-| |--5-5-5-5--5-5-5-5--6-6-6-6---------| |------------------------------------|
|-----------------| |-----------------| |-----7-7-6-6-----| |-8-8---------7-7-| |-----------------| |-----------------|
|------------------------------------| |------------------------------------| |------------------------------------| |-7--------7--------8--------8-8-9-9-| |--5-5-5-5--5-5-5-5--6-6-6-6---------| |------------------------------------|
|-----------------| |-----------------| |-----7-7-6-6-----| |-8-8---------7-7-| |-----------------| |-----------------|
|-----------------| |-----------------| |-----7-7-6-6-----| |-8-8-------------| |-------------7---| |-------------5---|
Bassriff |-----------------------------------------------------------| |-----------------------------------------------------------| |-7---7---7--8---8---8--8------8------8---7------7------7---|
|--5-5-5-5-5--5-5-5-5-5--10-10--10-10--10--10-10--10-10--10-|
guitar |------------------------------------------------------------| |------------------------------------------------------------| |------------------------------------------------------------| |----------------------7-------------------------------------| |-7--------------------5-------------------------------------| |-5----------------------------------------------------------|
guitar fill |---------| |---------| |---------| |---------| |-/10-8-7-| |---------|
|-------------------------------| |-------------------------------| |-------------------------------| |---------8-----5-5-4-4---------| |-5-5-5-5-6-5-5---------3-3-2-2-| |-------------------------------|
|-------------------------------| |-------------------------------| |-------------------------------| |---------8---------------------| |-5-5-5-5-6-5-5---------3-3-2-2-| |---------------3-3-2-2---------|
guitar 1 |-----------------------------------------| |-----------------------------------------| |-----------------------------------------| |-7-7-7-7-10-10-10-10-8-8-8-8-10-10-11-11-| |-----------------------------------------| |-----------------------------------------|
guitar 2 |--------------------| |--------------------| |--------------------| |--------------------| |-7---10---8---10-11-| |-5---8----6---8--9--| |----------------------------------------------------------| |----------------------------------------------------------| |----------------------------------------------------------| |----------------------------------------------------------| |-777--101010--888--101011-----777--101010--888---10-10-11-| |-555--8-8-8---666--8-8-9------555--8-8-8---666---8--8--9--| .. . . .. . . .. . . .. . . That was the riffs and you can figure out order of them yourself, Tuukka Eskola espo@edu.lahti.fi



























variations - click chord images
Transpose chords:
Tuning:
Cool service:
View: Size:
A  A  A
Rating:
Layout:
  • Currently 0/5 Stars.
  • 1
  • 2
  • 3
  • 4
  • 5
 
Accuracy:
  • Currently 2.7/5 Stars.
  • 1
  • 2
  • 3
  • 4
  • 5
 
click stars to rate
Chordie recommends:
Learn how to play guitar at JamPlay.com
Songbook:
Login to add this song to your songbook
Support the artist
Preview/buy this song
MSN Music
Why this non-profit ad?

 
login to add comments/video/corrections