Chordie logo

Mariels Brazen Overture   Margot and The Nuclear So and Sos



-----------------------------------------------------------------
Mariel’s Brazen Overture – Margot and the Nuclear So & So’s
-----------------------------------------------------------------
Tabbed by:Mike Birkey
Email:mike.birkey@gmail.com
Tuning:standard

E|---2-----2---4---------2-----2---------2------|
B|-2---2-3---5---7-2-3-2---2-3---5-7-4-3--------|
G|----------------------------------------------|   Intro/Verse
D|----------------------------------------------|
A|-------2---4---4-2-2-------2---4-4-3-2--------|
E|-2---2---------------2---2--------------------|

E|---2-----2---4---------|
B|-2---2-3---5---7-2-3---|
G|-----------------------|  X2  Verse 1
D|-----------------------|
A|-------2---4---4-2-2---|
E|-2---2-----------------|

E|---------------------------------------------|
B|---------------------3---------3-----3-------|
G|-2-------2-------------4---1-----4-----1-----|    Verse 2
D|-----2-2-----2-2---2-----4---2-----4---------|
A|---2-------2-----2---2-----2---2-----2-2-----|
E|-2-----0-2-----0-----------------------------|

E|-------------------------------------------------|
B|-------------------------------------------------|
G|-------------------------------------------------|  Verse 3
D|-4s7---2s4-2-4s7---2s4-2-------2s4-2-------------|
A|-----4-----------4-------2s4-0-------2s4-0-------|
E|-------------------------------------------2-0---|

E|------------------------------------|
B|------------------------------------|
G|------------------------   Verse 4--|Play first set 4 times
D|-----------2-2-4-4------------------|           and the same for the second
A|-2-2-4-4---0-0-0-0------------------|           set.
E|-0-0-0-0---x-x-x-x------------------|

E|----------------|
B|----------------|
G|----------------|    Fill 1
D|-2-----2--------|
A|-2-0---2-0------|
E|-0---4-0---4----|

E|-------------------------------------------------|
B|-----0---------3-------3-------3-------3---------|
G|-------0---------2-------2-------2-------2-------|   Verse 5
D|-2-2-----2-2-2-2-1-2-2-2-1-2-2-2-1-2-2-2-1-2-----|
A|-2-2-----2-2-2-3-2-2-2-3-2-2-2-3-2-2-2-3-2-2-----|
E|-0-0-----0-0-0-----0-0-----0-0-----0-0-----0-----|

E|-----4-------2-------4-------2-------------0---|
B|-5-----5-2-----2-5-----5-2-----2-2---------0---|
G|---6-------2-------6-------2-----2-1—(X2)--1---|   Verse 6
D|---------------------------------2-2-------2---|
A|-4---------------4---------------0-2-------2---|
E|---------2---------------2---------0-------0---|


E|-2--2--4--4--2---|
B|-2--3--5--5--3---|
G|-2--4--6--7--4---|   (about 4 times) Verse 7
D|-4--4--6--6--4---|
A|-4--2--4--4--2---|
E|-2--x--x--x--x---|

---------------------Structure-------------------

INTRO/VERSE
VERSE 1
VERSE 2
VERSE 1
VERSE 3
VERSE 4
FILL 1
VERSE 4
FILL 1

VERSE 5
VERSE 6
VERSE 7
VERSE 3


Tablature Notation

h - hammer on
p - pull off
b - bend string up
r - release bend
/ - slide up
\ - slide down
v - vibrato (or ~)
t - right hand tap


Important: The song above is NOT stored on the Chordie server. The original song is hosted at www.guitaretab.com. Chordie works as a search engine and provides on-the-fly formatting. Chordie does not index songs against artists/composers will. To remove this song please click here.

This song is displayed as text-only. Transposing and tuning is only available for chordpro-songs.

Login - add to songbook

Rating click stars to rate

Layout
Accuracy

SHARE PAGE  

You need to log in to post comments