Guitar Tabs, Chords and Lyrics


Skeleton Key  Margot and The Nuclear So and Sos

e---0--------------------------------0----------------------|


B---------3p1------0--1--0----------------3p1-------0--1--0-|


G--------------2-------------0------------------2-----------|

D------------------------------2----------------------------|
A-----------------------------------------------------------|
E-----------------------------------------------------------|
G-----------------------------------------|
D-----------------------------------------|
A---2-------4-----------------------------|
E--------------0--------2--------2--4--5--|
e---0--0------2---0---0---0------------0--0------2---0-|
B---1--3p1----3---0h1-1---0------------1--3p1----3---0-|
G---2--2----2-2---0---0---0--0---------2--2----2-2---0-|
D---2--2------------------2----2-------2--2----------2-|
A---0--0------------------2------------0--0----------2-|
E---0--0------------------0------------0--0----------0-|
I did a s[Am]ick, sick th[D]ing to my lo[Em]ve.
My lack of loy[Am]alty, it swa[D]llowed her [Em]up.
And she cooks me f[G]ood.
She squirmed and t[Am]urned like a s[D]keleton k[Em]ey.
She left her m[Am]an unatt[D]ended to m[Em]e.
Don't call me th[G]at.
Don't claim you l[Am]ove me
cause you k[D]now that ain't t[Em]rue.
And you're finally f[G]ree
to twist and t[Am]urn like a sk[D]eleton k[Em]ey.
You've gotta let me k[G]now.
You've gotta let me k[G]now.
I did a horrible thing to that girl.
I bread my misery and drowned it in her.
And she got me high,
And I hardly noticed there were tears in her eyes.

And I miss you less and less everyday.
This stream of whisky helps to wash you away.

And it's clear to see,
You're nothing special.
You're a skeleton key.

You've gotta let me know.
You've gotta let me know.
You've gotta let me know.
You've gotta let me know.

Whooo!

Important: The song above is NOT stored on the Chordie server. The original song is hosted at www.guitaretab.com. Chordie works as a search engine and provides on-the-fly formatting. Chordie does not index songs against artists'/composers' will. To remove this song please click here.

Text color:
Chord color:
Chord grids: 
Font size:    
Page size: 

Am D Em G
variations - click chord images

Login - add to songbook

Transpose chords

Tuning

Rating click stars to rate

Layout
Accuracy

SHARE PAGE  




You need to log in to post comments