Guitar Tabs, Chords and Lyrics


A Light On A Hill   Margot and The Nuclear So and Sos



A Light on a Hill

This is how Richard played it live...it is much more accurate than my last tab of this song...


Capo on 5th Fret

e----------------------------2-------------|
b-----3-----3----3-----3-----0-------------|
g-----------------------0-----0------------|
d--2--2--------0h2-----0-----0-------------| REPEAT Verse
a--2--2--------0h3-----0-----0-------------|
E--------2--2--------3----2----------------|


e----------------------------------|
b--1-----1----1---1--1-------------|
g--2-------------------------------|
d--2--2--2--0h2--------------------| CHORUS
a-----2--3----3---2----------------|


Important: The song above is NOT stored on the Chordie server. The original song is hosted at www.guitaretab.com. Chordie works as a search engine and provides on-the-fly formatting. Chordie does not index songs against artists'/composers' will. To remove this song please click here.

This song is displayed as text-only. Transposing and tuning is only available for chordpro-songs.

Login - add to songbook

Rating click stars to rate

Layout
Accuracy

SHARE PAGE  




You need to log in to post comments