Guitar Tabs, Chords and Lyrics


Talking In Code  Margot and The Nuclear So and Sos

  [C]                     [Am7]                   [C]                   [Am7]                                  
E-------------------------------------------------------------------|
B----1-----------3-1-0h1------------3/5-3-0h1------------3-1-0h1----|
G------0----0------------0----0---------------0----0-------------0--|
D-------0h2---------------0h2------------------0h2------------------|
A--3----------3-3-----0---------0-0--------3---------3-3------0-----|
E-------------------------------------------------------------------|
E-----------------------|
B------------3/5-3-0h1--|
G------0----------------|
D--0h2------------------|
A--------0-0------------|
E-----------------------|


For the verses just strum the chords and keep picking the bass line hammer-on's for the
and D strings but leave out the B string part that's in the intro. During the chorus let
high-e ring open for the F, G, and C chords.


[Intro] 
I gotta [C] go,
And your talking in [Am7] code,
Saying I know where you've [C] been,
And I know where you [Am7] go.
But I've been [F] tir-[G]-ed from the [C] minute I woke,
I stopped [F]listen-[G]-ing the [C] moment you spoke,
And said [F] I'm [G] long [C] gone,
Yeah, [F] I'm [G] long [C] gone.
[Intro] 
And I'm sleeping [C] alone,
In a house I don't [Am7] own,
Cause if you're touring your [C] mind,
You'll get lost [Am7] everytime...
And you'll sing me [F] sad [G] songs to [C] keep me awake,
In that [F] bed [G] room [C] we hid away,
Baby, [F] I'm [G] long [C] gone,
Yeah, [F] I'm [G] long [C] gone...
[Intro] 
And your [F] voice [G] cracks [C] like a piano,
You keep [F]mov-[G]-ing, [C]but where are you going,
Baby, [F] we're [G] long [C] gone,
Yeah, [F] we're [G] long [C] gone...
Enjoy!

Important: The song above is NOT stored on the Chordie server. The original song is hosted at www.guitaretab.com. Chordie works as a search engine and provides on-the-fly formatting. Chordie does not index songs against artists'/composers' will. To remove this song please click here.

Text color:
Chord color:
Chord grids: 
Font size:    
Page size: 

Am7 C F G
variations - click chord images

Login - add to songbook

Transpose chords

Tuning

Rating click stars to rate

Layout
Accuracy

SHARE PAGE  




You need to log in to post comments