Guitar Tabs, Chords and Lyrics


Broad Ripple Is Burning  Margot and The Nuclear So and Sos

   [Am]    [F]        [C]   [G/B]                                                                 
e|-----1---------------|
B|-1---1----1--1---1---|
G|-2---2-or-2--0---0---|
D|-2---3----3--2---0---|
A|-0---3----3--3---2---|
E|-----1---------------|


Intro:

    [Am]                [F]                [C]                        [G/B]                       
e|-------------------------------------------------------------------|
B|--------1-------1-------1-------1-------1-------1-------1----------|
G|----2-------2-------2-------2-------0-------0-------0-------0---0--|
D|------2-------2-------3-------3-------2-------2-------2------------|
A|--0-------0-------3-------3-------3-------3-------3-------3---2----|
E|-------------------------------------------------------------------|


Verse 1: Same Pattern as Intro.
Honey B[Am]road Ripple is bu[F]rning and the g[C]irls are getting sick, off sno[G/B]rting
[Am]coke up in the ba[F]throom while their b[C]oyfriends pick up chicks, and da[G/B]rling im
l[Am]ost. I heard you wh[F]ispering that n[C]ight in fountain square, the tr[G/B]ashed
filled s[Am]treets made me [F]wish we were headed [C]home.


[G/B]There was l[Am]ove inside the b[F]asement where that w[C]oman used to lie. [G/B]In a
[Am]sleeping bag we sh[F]ared upon the f[C]loor almost every night. And da[G/B]rling I’m
d[Am]runk, and everyt[F]hing that I h[C]ave loved has turned to stone. So p[G/B]ack your
[Am]bags and c[F]ome back h[C]ome.
Chorus:

    [Am]                                [F]                                               
e|-------------------------------------------------------------------|
B|--------1-------1-------1-------1-------1-------1-------1-------1--|
G|----2-------2-------2-------2-------2-------2-------2-------2------|
D|------2-------2-------2-------2-------3-------3-------3-------3----|
A|--0-------0-------0-------0-------3-------3-------3-------3--------|
E|-------------------------------------------------------------------|


    [C]                [G/B]                [Am]                                               
e|-------------------------------------------------------------------|
B|--------1-------1-------1-------1-------1-------1-------1-------1--|
G|----0-------0-------0-------0-------2-------2-------2-------2------|
D|------2-------2-------0-------0-------2-------2-------2-------2----|
A|--3-------3-------2-------2-------0-------0-------0-------0--------|
E|-------------------------------------------------------------------|

       [F]                                [Am]                                            
e|-------------------------------------------------------------------|
B|--------1-------1-------1-------1-------1-------1-------1-------1--|
G|----2-------2-------2-------2-------2-------2-------2-------2------|
D|------3-------3-------3-------3-------2-------2-------2-------2----|
A|--3-------3-------3-------3-------0-------0-------0-------0--------|
E|-------------------------------------------------------------------|

    [F]                [G/B]                [C]                                               
e|------------------------------------------------------------------|
B|--------1-------1-------1-------1-------1-------1-------1-------1-|
G|----2-------2-------0-------0-------0-------2-------0-------0-----|
D|------3-------3-------0-------0-------2-------2-------2-------2---|
A|--3-------3-------2-------2-------3-------3-------3-------3-------|
E|------------------------------------------------------------------|

And I’m [Am]wasted you can [F]taste it. [C]Don’t look at [G/B]me that w[Am]ay. Cause I’ll be
h[F]anging from a r[Am]ope. I’ll be h[F]anging f[G/B]rom a [C]rope.
Verse 2: Same as first verse
And if my [Am]woman was a [F]fire, she’d burn [C]out before I wake. And[G/B] be rep[Am]laced by
pints of wh[F]iskey, ci[C]garettes and outer space. Then s[G/B]omebody m[Am]oves and
everyt[F]hing you thought you h[C]ad has gone to shit. But we’ve [G/B]got a [Am]lot, don’t
[F]ever f[C]orget that.


[G/B]And I w[Am]rote this on an airp[F]lane where the p[C]eople look like ants. A[G/B]nd when a
[Am]woman that you l[F]ove is gone, she’s b[C]ombing east Japan. Do[G/B]n’t fucking [Am]move,
cause everyt[F]hing you think you h[C]ad will go to shit. But we’ve [G/B]got a l[Am]ot don’t
you d[F]are for[C]get that.
Chorus:
And I’m [Am]wasted you can [F]taste it. [C]Don’t look at [G/B]me that w[Am]ay. Cause I’ll be
h[F]anging from a r[Am]ope. I’ll be h[F]anging f[G/B]rom a [C]rope.

“Bridge”
Chords- F, C,G/B, Am, F, C

Chorus:
A[G/B]nd I’m w[Am]asted you can t[F]aste it. D[C]on’t look at m[G/B]e that wa[Am]y. Cause I’ll be
h[F]anging from a r[Am]ope. I’ll be h[F]anging f[G/B]rom a [C]rope.

Important: The song above is NOT stored on the Chordie server. The original song is hosted at www.guitaretab.com. Chordie works as a search engine and provides on-the-fly formatting. Chordie does not index songs against artists'/composers' will. To remove this song please click here.

Text color:
Chord color:
Chord grids: 
Font size:    
Page size: 

Am C F G/B
variations - click chord images

Login - add to songbook

Transpose chords

Tuning

Rating click stars to rate

Layout
Accuracy

SHARE PAGE  




You need to log in to post comments