Guitar Tabs, Chords and Lyrics


O What A Nightmare   Margot and The Nuclear So and Sos



Standard

e----2---3---2--------------------|
b----3---3---3---0----------------|
g----4---4---4---0----------------|
d----4---5---4---0----------------|   X2
a----2---5---2---2----------------|
e--------3-------3----------------|

e----2------------2-------|
b----3---1--------3-------|
g----2---2--------2-------|
d---------2--2------------|
a-------------2-----------|
e-------------0-----------|

e----2---3---2--------------------|
b----3---3---3---0----------------|
g----4---4---4---0----------------|
d----4---5---4---0----------------|   X4
a----2---5---2---2----------------|
e--------3-------3----------------|

e----2------------2-----------------------------|
b----3---1--------3-----------------------------|
g----2---2--------2-----------------------------|    X4
d--------2----2---------------------------------|
a-------------2---------------------------------|
e-------------0---------------------------------|

e--------------------|
b----4---------------|
g----4----1----------|
d----4----2----------| some hammers and pulls in here im not going to tab them
a----2----2----------|
e---------0----------|

e--------0---------------0----------------|
b--------3---------------3----------------|
g---1----2----------1----2----1-----------|
d---2--------2------2---------2-----------|
a---2--------2------2---------2-----------|
e---0--------0------0---------0-----------|

e----2------------2---------------------------|
b----3---1--------3---------------------------|
g----2---2--------2---------------------------|    X3?  (end on a G chord)
d--------2----2-------------------------------|
a-------------2-------------------------------|


Important: The song above is NOT stored on the Chordie server. The original song is hosted at www.guitaretab.com. Chordie works as a search engine and provides on-the-fly formatting. Chordie does not index songs against artists'/composers' will. To remove this song please click here.

This song is displayed as text-only. Transposing and tuning is only available for chordpro-songs.

Login - add to songbook

Rating click stars to rate

Layout
Accuracy

SHARE PAGE  




You need to log in to post comments