Guitar Tabs, Chords and Lyrics


German Motor Car  Margot and The Nuclear So and Sos

e|--3--3---3-----3---0--0--0--0--0--1--|


B|--0--4---3-----0---0--1--1--1--3--1--|


G|--0--5---3-----0---0--0--0--2--0--2--|

D|--0--5---5-----0---2--2--0--2--4--3--|
A|--2--3---5-----0---2--3--2--0--5--3--|
E|--3--x---3-----2---0--x--x--x--x--1--|
e|---------------------------------------|
B|---------------------------------------|
G|----4---4---4----4------0---0---0---0--|
D|--5---5---5----5-----/4---4---4---4----|
A|---------------------------------------|
E|---------------------------------------|
I've go[G]t you… [Cm]
(Main Riff)

Well, the robots cleaned at alarming speed
all the bedroom sheets and the tv screens
withou[G]t you
[Gm]I haven't a thi[Cm]ng to d[G]o, [Gmaj7]no more [Em]
C C7 Am C* G Em
this is how you ditch someone that drives you mad.


(Main Riff when lyrics begin)
I struggled and swam through a panicked sea
I had a backyard gang and I dressed in green.
I had [G]you…
[Gm]So I never [Cm]had the b[G]lues, n[Gmaj7]ot me   [Em]

C C7 Am C* G Em
this is how you ditch someone that drives you mad

So, I wi[Am]ll sit right down and stare [Em]at the wall
and pray[Am] that you are nothing like your ph[Em]oto at all
I will s[Am]it right down and stare a[Em]t the wall
and pray[Am] that you are nothing like your p[Em]hoto at all

Interlude:
F (Played at the 9th fret), F (Played at the 10th fret) (Four times)

(Silent)
Well it sure felt nice getting ripped apart

e|------------------------------------|
B|------------------------------------|
G|----0---0---0---0---0---0---0----0--|
D|--4---4---4---4---4---4---4---4-----|
A|------------------------------------|
E|------------------------------------|

in that junked out german motorcar

I've go[G]t you.
[Gm]So I never [Cm]had the b[G]lues,[Gmaj7] not me  [Em]
C C7 Am C* G Em
this is how you ditch someone that drives you mad

So, I wi[Am]ll sit right down and stare [Em]at the wall
and pray[Am] that you are nothing like your p[Em]hoto at all
I will [Am]sit right down and stare [Em]at the wall
and pray[Am] that you are nothing like your ph[Em]oto at all
Pray th[Am]at you are nothing like your ph[Em]oto at all
Pray t[Am]hat you are nothing like your ph[Em]oto at all

End on Cm.

Important: The song above is NOT stored on the Chordie server. The original song is hosted at www.guitaretab.com. Chordie works as a search engine and provides on-the-fly formatting. Chordie does not index songs against artists'/composers' will. To remove this song please click here.

Text color:
Chord color:
Chord grids: 
Font size:    
Page size: 

Am Cm Em G Gm Gmaj7
variations - click chord images

Login - add to songbook

Transpose chords

Tuning

Rating click stars to rate

Layout
Accuracy

SHARE PAGE  




You need to log in to post comments