Guitar Tabs, Chords and Lyrics


Quiet As A Mouse   Margot and The Nuclear So and Sos



intro-standard tuning

e---------------------------------------------------------|
b---------------------------------------------------------|
g-----7----7--7----7----7--7---7---7--7----7----7--7------|
d-5-5--5-5--5---------------------------------------------|
a---------------6-6--6-6-6--5-5-5-5-5--6-6--6-6--5--------|
E---------------------------------------------------------|

play that for intro and verse


chorus

e---------------------------|
b---------------------------|
g--8-----7--8---------------|
d--8--8--7--8---------------|
a--6--8--5--6---------------|


Important: The song above is NOT stored on the Chordie server. The original song is hosted at www.guitaretab.com. Chordie works as a search engine and provides on-the-fly formatting. Chordie does not index songs against artists'/composers' will. To remove this song please click here.

This song is displayed as text-only. Transposing and tuning is only available for chordpro-songs.

Login - add to songbook

Rating click stars to rate

Layout
Accuracy

SHARE PAGE  




You need to log in to post comments