Guitar Tabs, Chords and Lyrics


Broad Ripple Is Burnin Acoustic  Margot and The Nuclear So and Sos

     [Am]          [F]                   [C]   
v ^ ^ V ^ v ^ v ^ v ^ v ^ v
|-0-0--0-0-0-1-1-1-1----------0-0-0-0-0-----|
|-1-1--1-1-1-1-1-1-1----------1-1-1-1-1-----|
|-2-2--2-2-2-2-2-2-2-0p2h0----0-0-0-0-0-----|
|-2-2--2-2-2-3-3-3-3------3p2-2-2-2-2-2-----| 2X
|-0-0--0-0-0-3-3-3-3----------3-3-3-3-3-2-0-|
|-x-x--x-x-x-1-1-1-1----------x-x-x-x-x-----|



VERSE:

      [Am]          [F]         [C]            
v ^ ^ V ^ v ^ v ^ v ^ v ^ v
|-0-0--0-0-0-1-1-1-1-0-0-0-0-0-----|
|-1-1--1-1-1-1-1-1-1-1-1-1-1-1-----|
|-2-2--2-2-2-2-2-2-2-0-0-0-0-0-----|
|-2-2--2-2-2-3-3-3-3-2-2-2-2-2-----| 8X
|-0-0--0-0-0-3-3-3-3-3-3-3-3-3-2-0-|
|-x-x--x-x-x-1-1-1-1-x-x-x-x-x-----|



CHORUS:

    [Am]          [F]         [C]         [G]    [Am] 
|-0-0-0-0--1-1-1-1--0-0-0-0--3-3-3-3--0-0-0-0-|
|-1-1-1-1--1-1-1-1--1-1-1-1--3-3-3-3--1-1-1-1-|
|-2-2-2-2--2-2-2-2--0-0-0-0--0-0-0-0--2-2-2-2-|
|-2-2-2-2--3-3-3-3--2-2-2-2--0-0-0-0--2-2-2-2-|
|-0-0-0-0--3-3-3-3--3-3-3-3--2-2-2-2--0-0-0-0-|
|-x-x-x-x--1-1-1-1--x-x-x-x--3-3-3-3--x-x-x-x-|


     [F]         [Am]         [F]          [G]   [C] 
|-1-1-1-1--0-0-0-0--1-1-1-1--3-3-3-3--0-0-0-0-|
|-1-1-1-1--1-1-1-1--1-1-1-1--3-3-3-3--1-1-1-1-|
|-2-2-2-2--2-2-2-2--2-2-2-2--0-0-0-0--0-0-0-0-|
|-3-3-3-3--2-2-2-2--3-3-3-3--0-0-0-0--2-2-2-2-|
|-3-3-3-3--0-0-0-0--3-3-3-3--2-2-2-2--3-3-3-3-|
|-1-1-1-1--x-x-x-x--1-1-1-1--3-3-3-3--x-x-x-x-|



intro : 2x
verse : 8x
chorus :1x
intro : 2x
verse : 8x
chorus : 2x


Honey [Am]broadripple is bur[F]ning
and the g[C]irls are gettin s[C]ick
off snorting [Am]coke up in the ba[F]throom
while their boy[C]friends pick up ch[C]icks
and darling i'm [Am]lost
i heard you w[F]hispering
that n[C]ight in fountain sq[C]uare
the trashed filled st[Am]reets makes me w[F]ish that i'd go h[C]ome
there was love inside the bas[F]ement
way b[C]ack home we u[C]sed to lie
in a s[Am]leeping bag we sha[F]red upon
the f[C]loor for almost [C]every night
and darling i'm [Am]drunk
ever[F]ything that [C]i had loved has turn[C]ed to stone
so pack yo[Am]ur bags and come back hom[C]e
and i'm w[Am]asted
you can t[F]aste it
don't l[C]ook at[G] me that [Am]way
cause i'll be han[F]ging from a r[Am]ope
i'll be ha[F]ngin fr[G]om a ro[C]pe
if my [Am]woman was a f[F]ire
she'd burn [C]out before [C]i wake
and be r[Am]eplaced by pounds of wh[F]iskey
cigarett[C]es and outer s[C]pace
then somebody m[Am]oves
and every[F]thing you thought you h[C]ad has gon[C]e to shit
we've got a [Am]lot
don't [F]ever forg[C]et that
and i [Am]wrote this on [F]airplane where [C]the people look [C]like ants
and when a [Am]woman that you l[F]ove is gone
[C]she was bombing e[C]ast japan
don't fucking [Am]move
cause every[F]thing you think [C]you have will g[C]o to shit
we've got a [Am]lot
do[F]n't you dare f[C]orget that
and i'm w[Am]asted
you can t[F]aste it
don't l[C]ook at[G] me that [Am]way
cause i'll be han[F]ging from a r[Am]ope
i'll be ha[F]ngin f[G]rom a r[C]ope
and i'm w[Am]asted
you can ta[F]ste it
don't l[C]ook at[G] me that [Am]way
cause i'll be ha[F]nging from a r[Am]ope
F G C (These last three chords, strum once each)
i'll be hangin from a rope

Important: The song above is NOT stored on the Chordie server. The original song is hosted at www.guitaretab.com. Chordie works as a search engine and provides on-the-fly formatting. Chordie does not index songs against artists'/composers' will. To remove this song please click here.

Text color:
Chord color:
Chord grids: 
Font size:    
Page size: 

Am C F G
variations - click chord images

Login - add to songbook

Transpose chords

Tuning

Rating click stars to rate

Layout
Accuracy

SHARE PAGE  




You need to log in to post comments