Guitar Tabs, Chords and Lyrics


Diary Of A Dope Fiend   Marilyn Manson



          Song: Diary Of A Dope Fiend
          Album: Smells Like Children
          Artist: Marilyn Manson
          Tabbed: Matt Patterson Hitman95@hotmail.com

          Intro
          |--14-------------14----------|
          |---------13----------13------|
          |------14-----------------14--|
          |-----------------------------|
          |-----------------------------|
          |-----------------------------|

          |-----------------|
          |-----------------|
          |--11--9--14--11--|
          |--11--9--14--11--|
          |--9---7--12--9---|
          |-----------------|

          End of 1st Verse
          |--11b12--------r11b12r11b12r11----------14--------14-|
          |-------------------------------12b13-13-----13-13----|
          |-----------------------------------------------------|
          |-----------------------------------------------------|
          |-----------------------------------------------------|
          |-----------------------------------------------------|

          |-----------------------------------------|
          |--r12--r12r12r12---10--------------------|
          |-----------------------11-9-----11-9-----|
          |----------------------------10-------10--|
          |-----------------------------------------|
          |-----------------------------------------|

          2nd Verse
          |--------------------|
          |--------------------|
          |--11--11-11--9--11--|
          |--------------------|
          |--------------------|
          |--------------------|

          |--------------------|
          |--11--11-11--9------|
          |----------------11--|
          |--------------------|
          |--------------------|
          |--------------------|

          |--------------------------|
          |----------------10b11r10--|
          |--11--11-11--9------------|
          |--------------------------|
          |--------------------------|
          |--------------------------|

          Hard Part "Fail to see the.."
          |-------------------------|
          |-------------------------|
          |-------------------------|
          |--4-4--7-7--4-4--10--9---|
          |--4-4--7-7--4-4--10--9---|


Important: The song above is NOT stored on the Chordie server. The original song is hosted at www.guitaretab.com. Chordie works as a search engine and provides on-the-fly formatting. Chordie does not index songs against artists'/composers' will. To remove this song please click here.

This song is displayed as text-only. Transposing and tuning is only available for chordpro-songs.

Login - add to songbook

Rating click stars to rate

Layout
Accuracy

SHARE PAGE  




You need to log in to post comments