Guitar Tabs, Chords and Lyrics


Gallery  Mario Vasquez

--------------------------------------------------------------------|


------1----0---1------------1----0---1-------------1----0---1-------|


---2--------------2------0--------------0-------2--------------2----|

---------------------------------------------3--------3---3---------|
0--------0---0--------3--------3---0--------------------------------|
--------------------------------------------------------------------|
--------------------------------------------------------------------|
------1----0---1--3~------------------------------------------------|
0--0-----0---0------------------------------------------------------|
--------------------------------------------------------------------|
--------------------------------------------------------------------|
--------------------------------------------------------------------|
God broke the mold[Am],
When he made this one I know
S[C]he's breathtaking but so much more
S[F]he walks in the room, your loves closed
Ma[Gm]king you never want to breathe again
H[Am]er boyfriend has got so much dough
S[C]o much ice his neck and wrist froze
I[F]s he faithful to her? Hell no
B[Gm]ut she chose to be with him, shorty

________________________________________

T[Am]ell me is the money worth your s[C]oul
Tell me what's the reason that you h[F]old on
When you know that dude h[Gm]as a whole wall of 'em just like you    [Am]
And girl you're just way too f[C]ine
Gotta be treated as one of a k[F]ind

Girl use your mind
D[Gm]on't be just another dime

Because

---------------------------


[Am]I can't t[C]ake
Seeing you with h[F]im
'Cuz I know exactly what you'll [Gm]be,

In his gallery
I[Am]t's just not f[C]air
And it's tearing me a[F]part
You're just another priceless work of [Gm]art
In his ga[Am]llery

________________________________________

She's so confus[Am]ed

She knows she deserves more
Som[C]eone who will love and adore
B[F]ut his money's hard to ignore
[Gm]She really doesn't know what to do
Girl[Am] it's just a matter of time
Be[C]fore he finds another more fine [F]
After he's done dulling your shine [Gm]
You're out the door and he's through with yo[Am]u


T[Am]ell me is the money worth your soul     [C]
Tell me what's the reason that you hold on,  [F]
When you know that dude h[Gm]as a whole wall of 'em just like you    [Am]
And girl you're just way too f[C]ine
Gotta be treated as one of a k[F]ind
Girl use your mind
D[Gm]on't be just another dime

---------------------------------


[Am]I can't t[C]ake
Seeing you with h[F]im
'Cuz I know exactly what you'll [Gm]be

In his gallery
I[Am]t's just not f[C]air
And it's tearing me a[F]part
You're just another priceless work of [Gm]art
In his ga[Am]llery   [Dm]
You're a ma[Am]sterpiece
I know that [Dm]he
Can't ap[Am]preciate your beaut[Dm]y

Don't let him cheapen you
[Am]He don't see you like I do
B[Fm]eautiful not just for show
T[F]ime that someone let you know

[Am]I can't t[C]ake
Seeing you with h[F]im
'Cuz I know exactly what you'll [Gm]be

In his gallery
I[Am]t's just not f[C]air
And it's tearing me a[F]part
You're just another priceless work of [Gm]art

-----------------------------------


[Am]I can't t[C]ake
Seeing you with h[F]im
'Cuz I know exactly what you'll [Gm]be

In his gallery
I[Am]t's just not f[C]air
And it's tearing me a[F]part
You're just another priceless work of [Gm]art
In his ga[Am]llery
In his ga[Am]llery

Important: The song above is NOT stored on the Chordie server. The original song is hosted at www.guitaretab.com. Chordie works as a search engine and provides on-the-fly formatting. Chordie does not index songs against artists'/composers' will. To remove this song please click here.

Text color:
Chord color:
Chord grids: 
Font size:    
Page size: 

Am C Dm F Fm Gm
variations - click chord images

Login - add to songbook

Transpose chords

Tuning

Rating click stars to rate

Layout
Accuracy

SHARE PAGE  




You need to log in to post comments