eToCache5 = ""; ?> Donegans Gone by Mark Knopfler - guitar chords, guitar tabs and lyrics - chordie

Donegans Gone

Mark Knopfler

-------------------------------------------------------------------------------

-------------------------------------------------------------------------------

 D
e|0------------/4--------|0------------/4--------|
B|-----0--------------0--|-----0--------------0--|
G|-----0-----------------|-----0-----------------|
D|-----0-----------0-----|-----0-----------0-----|
A|-----------------------|-----------------------|
E|0---------0------------|0---------0------------|


Chord Bm: Chord Dsus4add9:
e|---------0--------|-----------------0----------|
B|---------2--------|-----------------0----------|
G|---------0--------|-----------------1----------|
D|---------0--------|-----------------2----------|
A|---------2--------|-----------------0----------|
E|------------------|----------------------------|


Chord D/A: Chord D/F#: Chord D/G:
e|---------0--------|------0--|-----------0------|
B|---------0--------|------0--|-----------0------|
G|---------0--------|------0--|-----------0------|
D|---------0--------|------0--|-----------0------|
A|---------0--------|------0--|-----------0------|
E|------------------|------4--|-----------5------|


 DDsus4add9
Donegan's gone, Lonnie Donegan
D Main Lick
Donegan's gone
 D
Gone, Lonnie Donegan
Main Lick
Donegan's gone
 DD/F#D/G
Play that big grand coulee dam
 D/A
Nobody loves like an irishman
 BmDsus4add9
Gone, Lonnie Donegan
 D
Donegan's gone

Main Lick

 DDsus4add9
Donegan's gone, Lonnie Donegan
D Main Lick
Donegan's gone
 D
Gone, Lonnie Donegan
Main Lick
Donegan's gone
 DD/F#D/G
Lord, I'm just a rolling stone
 D/A
Rock my soul I wanna go home
 BmDsus4add9
Gone, Lonnie Donegan
 D
Donegan's gone

Solo (I think it's not a problem to play that solo, and i didn't tab it)

 DDsus4add9
Donegan's gone, Lonnie Donegan
D Main Lick
Donegan's gone

Gone, Lonnie Donegan

Donegan's gone
 DD/F#D/G
Stackalee and a gamblin' man
 D/A
Rock my soul in the bosom of abraham
 BmDsus4add9
Gone, Lonnie Donegan
 D
Donegan's gone

Main Lick

 DDsus4add9
Donegan's gone, Lonnie Donegan
D Main Lick
Donegan's gone

Gone, Lonnie Donegan

Donegan's gone
 DD/F#D/G
Time just goes on rolling by
 D/A
Lord, I feel like I could cry
 BmDsus4add9
Gone, Lonnie Donegan
 D
Donegan's gone

Main Lick

End:
Slide from any fret ~~
e|-----------------------/-12-----------------------------|
B|-----------------------/-12-----------------------------|
G|-----------------------/-12-----------------------------|
D|-----------------------/-12-----------------------------|
A|-----------------------/-12-----------------------------|
E|-----------------------/-12-----------------------------|



Bm D D/F# D/G Dsus4add9
variations - click chord images
Transpose chords:
Tuning:
Cool service:
View: Size:
A  A  A
Rating:
Layout:
  • Currently 3.3/5 Stars.
  • 1
  • 2
  • 3
  • 4
  • 5
 
Accuracy:
  • Currently 4.1/5 Stars.
  • 1
  • 2
  • 3
  • 4
  • 5
 
click stars to rate
Chordie recommends:
Learn to play this song & others via video guitar lessons at JamPlay.com
Songbook:
Login to add this song to your songbook
Support the artist
Preview/buy this song
MSN Music
Why this non-profit ad?

 
login to add comments/video/corrections