eToCache5 = ""; ?> Lions by Mark Knopfler - guitar chords, guitar tabs and lyrics - chordie
E---10--12--14------9-12--9------------10---12b13r12b13r12p10h12-----|

B-----------------------12--10--12-----------------------------------|
G--------------------------------------------------------------------|
D--------------------------------------------------------------------|
A--------------------------------------------------------------------|
E--------------------------------------------------------------------|
E---17b19---14h17p14--------------------------------------------------|
B--------------------17--15-------17b19r17p15-------------------------|
G---------------------------16----------------16-14-16----------------|
D------------------------------------------------------16/------------|
A---------------------------------------------------------------------|
E---------------------------------------------------------------------|

 BmDAG7
 Starlings, they're sweeping around yeh crazy shoals
 BmDAG7
Yes, and a girl is there High heeling out across the square
 BmDAG7
Wind it blows around in her hair and the flags upon the poles
 BmDAG7
Waiting in the crowd to cross at the light             
 Em7
She looks around to find a face she can like
 G6F#m7BmBmF#m7C7


















A Bm C7 D Em7 F#m7 G6 G7
variations - click chord images
Transpose chords:
Tuning:
Cool service:
View: Size:
A  A  A
Rating:
Layout:
  • Currently 2.5/5 Stars.
  • 1
  • 2
  • 3
  • 4
  • 5
 
Accuracy:
  • Currently 3.3/5 Stars.
  • 1
  • 2
  • 3
  • 4
  • 5
 
click stars to rate
Chordie recommends:
Learn to play guitar with video-based, online guitar lessons at JamPlay.com
Songbook:
Login to add this song to your songbook
Support the artist
Preview/buy this song
MSN Music
Why this non-profit ad?

 
login to add comments/video/corrections