Guitar Tabs, Chords and Lyrics


Ape Man   Markus Hook Roll Band



Zombina And The Skeletones
Ape Man Guitar Tab :)

* = Palm mute
~ = Let Ring

Guitar Starts At 0:16
verse
E------------------------------|
B------------------------------|
G------------------------------|
D-----3~---------33---3333--55-| x2
A-3~--1~---3333--11---1111--33-|
E-1~-------1111----------------|

E--------------------------------------|
B--------------------------------------|
G--------------------------------------|
D-33333333-33333333--------------------|
A-11111111-11111111--33333333-33333333-|
E--------------------11111111-11111111-|

E--------------------------------------|
B--------------------------------------|
G--------------------------------------|
D-33333333-33333333--------------------|
A-11111111-11111111--55555555-10-8-7-5-|
E--------------------33333333--8-6-5-3-|

Chorus
E----------------------|
B----------------------|
G----------------------|
D-------33---3333--55--| x4
A-3333--11---1111--33--|
E-1111-----------------|

Repeat Verse
Repeat Chorus

E-------------------------|
B-------------------------|
G-------------------------|
D-------------------------|
A-3~----33333333-33333333-|
E-1~----11111111-11111111-|
       ******** ********
Solo
E----------------------|
B----------------------|
G----------------------|
D-------33---3333--55--| x4
A-3333--11---1111--33--|
E-1111-----------------|

Verse 3
E------------------------------|
B------------------------------|
G------------------------------|
D-----3~---------33---3333--55-| x2
A-3~--1~---3333--11---1111--33-|
E-1~-------1111----------------|

E--------------------------------------------|
B--------------------------------------------|
G--------------------------------------------|
D-3--3-3----------3--3-3---------------------|
A-1--1-1--3-3333--1--1-1--5-55--5-55---------|
E---------1-1111----------3-33--3-33-8-6-5-3-|
                            **    **
Repeat chorus

E------|
B------|
G------|
D------|
A-333--|
E-111--|

Repeat chorus

End on:
E-----
B-----
G-----
D-----
A-3~--
E-1~--



Important: The song above is NOT stored on the Chordie server. The original song is hosted at www.guitaretab.com. Chordie works as a search engine and provides on-the-fly formatting. Chordie does not index songs against artists'/composers' will. To remove this song please click here.

This song is displayed as text-only. Transposing and tuning is only available for chordpro-songs.

Login - add to songbook

Rating click stars to rate

Layout
Accuracy

SHARE PAGE  




You need to log in to post comments