Reflections Of My Life

Marmalade

G-Bm-Em-G7-C-Em-Am-D7


 GBmEm
     The changing of sunlight to moonlight
 G7C
     Reflections of my life
 Em-AmD7
     oh, how they fill my eyes
 GBmEm
     The greetings of people in trouble
 G7C
     Reflections of my life,
 Em-AmD7
     oh, how they fill my mind

 GBmEmG7
     All my sorrows, sad tomorrows
 CEm-AmD7
     take me back to my own home
 GBmEm
     all my cryings (all my cryings)
 G7
    feel i'm dying, dying
 CEm-AmD7
     take me back to my own home
(oh i'm going home)

SOLO:

------------------------------------------------------------------------------------
------------------------------------------------------------------------------------
----14b16 16r14 12 11--------------15p14p12--12~~~~~14b16r14~~14b16-16bd14-12-14~~~
-12--------------------12~~~--14-14-------------------------------------------------
------------------------------------------------------------------------------------
------------------------------------------------------------------------------------
-------------------------------------------------------------------------------------
-------------------------------------------------------------------------------------
--------------------------------------12-12s11---------------------------15p14p12-12-
-0-0-0-0-0-0-0-0-0-0-0-0-...5-7-9~--12--------12~~---14-14-14-14-14-14-14------------
-------------------------------------------------------------------------------------
-------------------------------------------------------------------------------------
-----------------------------------------------------------------------------------
-----------------------------------------------------------------------------------
-14-12--14b16-14b16---16r14p12-12---12h14-12---------------------------------------
------------------------------------12----12--14-12-----------------14-12-------12-
----------------------------------------------------15-14-12-14-15--------15-12----
-----------------------------------------------------------------------------------
-----------------------------------------------------
-----------------------------------------------------
------------------------14s16------------------------
-----------14-12----12---------------12--16--14--12--
--12-14-15-------15------------12h14-----------------
-----------------------------------------------------


 GBmEm
     I'm changing, arranging, i'm changing
 G7C
    i'm changing everything
 Em-AmD7
    ah, everything around me

 GBmEm
     the world is a bad place, a bad place
 G7C
    a terrible place to live
 Em-AmD7
    oh, but i don't wanna die

 GBmEmG7
     All my sorrows, sad tomorrows
 CEm-AmD7
     take me back to my own home
 GBmEm
     all my cryings (all my cryings)
 G7
    feel i'm dying, dying
 CEm-AmD7
     take me back to my own home
(oh i'm going home)

 GBmEmG7
     All my sorrows, sad tomorrows
 CEm-AmD7
     take me back to my own home
 GBmEm
     all my cryings (all my cryings)
 G7
    feel i'm dying, dying
 CEm-AmD7
     take me back to my own home
(oh i'm going home)

 GBmEmG7
     All my sorrows, sad tomorrows
 CEm-AmD7
     take me back to my own home
 GBmEm
     all my cryings (all my cryings)
 G7
    feel i'm dying, dying
 CEm-AmD7
     take me back to my own home
(oh i'm going home)

CUALQUIER DUDA O COMENTARIO A MI MAIL fernando_iniguez@hotmail.com


Bm C D7 Em G G7
variations - click chord images
Transpose chords:
Tuning:
Cool service:
View: Size:
A  A  A
Rating:
Layout:
  • Currently 2.6/5 Stars.
  • 1
  • 2
  • 3
  • 4
  • 5
 
Accuracy:
  • Currently 3.4/5 Stars.
  • 1
  • 2
  • 3
  • 4
  • 5
 
click stars to rate
Chordie recommends:
Learn how to play guitar at JamPlay.com
Songbook:
Login to add this song to your songbook
Support the artist
Preview/buy this song
MSN Music
Why this non-profit ad?

 
login to add comments/video/corrections

arrowmint (report comment to admin):
 fernando,cool song 3rd line C Bm Am D7 works  just as well...