Guitar Tabs, Chords and Lyrics


Ragdoll   Maroon 5



------------------12b—12-12-12-12-12b-12b--10~------10------------| 
--------10-12-10------------------------------10-12----10h12p10\9-|
--10-11-----------------------------------------------------------| 
------------------------------------------------------------------| 
------------------------------------------------------------------| 
------------------------------------------------------------------|

-------------------------------------10b-9-7-9-10------------| 
------------------------------7h10p7-------------------------|
--------7h9p7---9b-9b-----9b---------------------------------| 
-0h7h9--------9----------------------------------------------| 
-------------------------------------------------------------| 
-------------------------------------------------------------|

-10b-12b—10h12p10-------12b-----------| 
------------------12------------------|
---------------------9----------------| 
--------------------------------------| 
--------------------------------------| 
--------------------------------------|


Important: The song above is NOT stored on the Chordie server. The original song is hosted at www.guitaretab.com. Chordie works as a search engine and provides on-the-fly formatting. Chordie does not index songs against artists'/composers' will. To remove this song please click here.

This song is displayed as text-only. Transposing and tuning is only available for chordpro-songs.

Login - add to songbook

Rating click stars to rate

Layout
Accuracy

SHARE PAGE  




You need to log in to post comments