Chordie logo


Eunuch Provocatuer   Mars Volta



-------------------------------------------------------------------------------
			    Eunuch Provocatuer by The Mars Volta
-------------------------------------------------------------------------------

Tabbed By : nibbleschew
e-mail: fuzzycheese100@yahoo.com- email me if you have any questions
Tuning: Standard

Intro
e|-----------|
B|-----------|
G|-----4-----|
D|-----2-----|
A|-----------|
E|--0--------|

|---------------|----------------------------------------------------------------|
|---------------|----------------------------------------------------------------|
|------0---4----|------0---4-----------------------------------------------------|
|--0h2-----4----|--0h2-----4-----------------------------------------------------|
|---------------|----------------------------------------------------------------|
|---------------|-------------0--------------------------------------------------|
        Played 2x then bass comes in

|------------|-----0------|----/12-|
|------------|-0-----0----|--------|
|---0---0----|---0-----0--|--------|
|----4---4--0|------------|--------|
|------------|------------|--------|
|------------|------------|--------|
       Then add things like these
Play 4 more times then drums come in
Play 10 more times until break

Chorus
e|1212-----15-|-1212------|-1212-----15|------------|
B|----1414----|-----1414--|-----1414---|----------12|
G|------------|---------12|------------|-1212-1414--|
D|------------|-----------|------------|------------|
A|------------|-----------|------------|------------|
E|------------|-----------|------------|------------|
This part is picked incredibly fast
Play 4x

Verse
e|--15---------12---------------------------|-------------------------------|
B|----12-----14-----------------------------|-------------------------------|
G|------12-13-----12-14-15-14-12-b14p12--12-|--14-12--12--------12----------|
D|-------------------------------------14---|-------14--14-12-14--14-12-----|
A|------------------------------------------|--------------------------14-12|
E|------------------------------------------|-------------------------------|
Play 4x

Chorus Played 4x
Verse played 4x and 2x with no guitar and heavy effects

Bridge
e|--------------------------|------------------|
B|--------------------------|---------12--14-15|
G|--------------------------|--12--------------|
D|----------12----12h14ph12-|----14-12---------|
A|-14-12-14----14-----------|------------------|
E|--------------------------|------------------|

Chorus 6x

Pre-Solo
e|--------|--------|
B|--------|--------|
G|--------|--------|
D|--------|--------|
A|-2------|--------|
E|---3--5-|-2-3--0-|
Play 4x

Guitar/Keys Solo
e|--5-7-0-3h5-2-----|-5-7-0-3h5-2----|
B|--------------3/5-|-------------3--|
G|------------------|----------------|
D|------------------|----------------|
A|------------------|----------------|
E|------------------|----------------|
Play 4x

Chorus 6x

Thats it... I'll tab the bass part to this later
Tabbed 8/15/06
Email me at fuzzycheese100@yahoo.com for comments, questions, or solutions if I made a mistake

      Key:
| /  slide up
| \  slide down
| h  hammer-on
| p  pull-off
| ~  vibrato
| +  harmonic
| x  Mute note


Important: The song above is NOT stored on the Chordie server. The original song is hosted at www.guitaretab.com. Chordie works as a search engine and provides on-the-fly formatting. Chordie does not index songs against artists/composers will. To remove this song please click here.

This song is displayed as text-only. Transposing and tuning is only available for chordpro-songs.

Login - add to songbook

Rating click stars to rate

Layout
Accuracy

SHARE PAGE  




You need to log in to post comments