Chordie logo


Cant You See Acoustic   Marshall Tucker Band



Marshall Tucker Band
Cant You See

I Tabbed This Version From Nick Swan's Youtube Video
Check It Out At http://www.youtube.com/watch?v=-a248mSVtkM&feature=related


Intro
e|--------------------------------------------------------------------|
B|----------10~10-12-10H12P10----1S3H5-5b-5b-3---3~-3-5---3-----------|
G|-7-7H9S11------------------------------------4--------4---4-2-------|
D|----------------------------12--------------------------------4-0---|
A|--------------------------------------------------------------------|
E|--------------------------------------------------------------------|

e|-----------------------------------------------------------|
B|----------10~10-12-10H12P10----1S3H5-5b-5b-3---3~----------|
G|-7-7H9S11------------------------------------4-------------|
D|----------------------------12-------------------2H4-4P2---|
A|-----------------------------------------------------------|
E|-----------------------------------------------------------|

The Rhythm guitar is strumming each chord out in the chorus for the intro.
The Intro Chords Are D C G D they do that twice.

Chorus

   D   Cadd9 G DDDsus4DDsus2D
e|-2---3---3---223202-|
B|-3---3---3---333333-|
G|-2---0---0---222222-|
D|-0---2---0---000000-|
A|-x---3---2---xxxxxx-|


Important: The song above is NOT stored on the Chordie server. The original song is hosted at www.guitaretab.com. Chordie works as a search engine and provides on-the-fly formatting. Chordie does not index songs against artists/composers will. To remove this song please click here.

This song is displayed as text-only. Transposing and tuning is only available for chordpro-songs.

Login - add to songbook

Rating click stars to rate

Layout
Accuracy

SHARE PAGE  




You need to log in to post comments